  0
SECTION
  2
HEADER
  9
$ACADVER
  1
AC1009
  9
$DWGCODEPAGE
  3
ansi_1252
  9
$INSBASE
 10
0
 20
0
 30
0
  9
$EXTMIN
 10
-1000
 20
-1000
 30
0
  9
$EXTMAX
 10
1000
 20
1000
 30
0
  9
$LIMMIN
 10
-103.73186
 20
-20.1418
  9
$LIMMAX
 10
57.24126
 20
120.8508
  9
$ORTHOMODE
 70
0
  9
$REGENMODE
 70
1
  9
$FILLMODE
 70
1
  9
$QTEXTMODE
 70
0
  9
$MIRRTEXT
 70
1
  9
$LTSCALE
 40
1
  9
$ATTMODE
 70
1
  9
$TEXTSIZE
 40
0.2
  9
$TRACEWID
 40
0.05
  9
$TEXTSTYLE
  7
Standard
  9
$CLAYER
  8
Outline
  9
$CELTYPE
  6
Continuous
  9
$CECOLOR
 62
256
  9
$DIMSCALE
 40
1
  9
$DIMASZ
 40
0.18
  9
$DIMEXO
 40
0.0625
  9
$DIMDLI
 40
0.38
  9
$DIMRND
 40
0
  9
$DIMDLE
 40
0
  9
$DIMEXE
 40
0.18
  9
$DIMTP
 40
0
  9
$DIMTM
 40
0
  9
$DIMTXT
 40
0.18
  9
$DIMCEN
 40
0.09
  9
$DIMTSZ
 40
0
  9
$DIMTOL
 70
0
  9
$DIMLIM
 70
0
  9
$DIMTIH
 70
1
  9
$DIMTOH
 70
1
  9
$DIMSE1
 70
0
  9
$DIMSE2
 70
0
  9
$DIMTAD
 70
0
  9
$DIMZIN
 70
0
  9
$DIMBLK
  1

  9
$DIMASO
 70
1
  9
$DIMSHO
 70
1
  9
$DIMPOST
  1

  9
$DIMAPOST
  1

  9
$DIMALT
 70
0
  9
$DIMALTD
 70
2
  9
$DIMALTF
 40
1
  9
$DIMLFAC
 40
1
  9
$DIMTOFL
 70
0
  9
$DIMTVP
 40
0
  9
$DIMTIX
 70
0
  9
$DIMSOXD
 70
0
  9
$DIMSAH
 70
0
  9
$DIMBLK1
  1

  9
$DIMBLK2
  1

  9
$MEASUREMENT
 70
0
  9
$INSUNITS
 70
1
  9
$DIMSTYLE
  2
STANDARD
  9
$DIMCLRD
 70
0
  9
$DIMCLRE
 70
0
  9
$DIMCLRT
 70
0
  9
$DIMTFAC
 40
1
  9
$DIMGAP
 40
0.09
  9
$LUNITS
 70
     2
  9
$MEASUREMENT
 70
     0
  9
$LUPREC
 70
4
  9
$SKETCHINC
 40
0.1
  9
$FILLETRAD
 40
0
  9
$AUNITS
 70
0
  9
$AUPREC
 70
0
  9
$MENU
  1
.
  9
$ELEVATION
 40
0
  9
$PELEVATION
 40
0
  9
$THICKNESS
 40
0
  9
$LIMCHECK
 70
0
  9
$CHAMFERA
 40
0.5
  9
$CHAMFERB
 40
0.5
  9
$SKPOLY
 70
0
  9
$TDCREATE
 40
2456054
  9
$TDUPDATE
 40
2456054
  9
$TDINDWG
 40
0
  9
$TDUSRTIMER
 40
0
  9
$USRTIMER
 70
1
  9
$ANGBASE
 50
0
  9
$ANGDIR
 70
1
  9
$PDMODE
 70
0
  9
$PDSIZE
 40
0
  9
$PLINEWID
 40
0
  9
$SPLFRAME
 70
0
  9
$SPLINETYPE
 70
6
  9
$SPLINESEGS
 70
8
  9
$HANDLING
 70
0
  9
$HANDSEED
  5
60
  9
$SURFTAB1
 70
6
  9
$SURFTAB2
 70
6
  9
$SURFTYPE
 70
6
  9
$SURFU
 70
6
  9
$SURFV
 70
6
  9
$UCSORG
 10
0
 20
0
 30
0
  9
$UCSXDIR
 10
1
 20
0
 30
0
  9
$UCSYDIR
 10
0
 20
1
 30
0
  9
$PUCSORG
 10
0
 20
0
 30
0
  9
$PUCSXDIR
 10
1
 20
0
 30
0
  9
$PUCSYDIR
 10
0
 20
1
 30
0
  9
$USERI1
 70
0
  9
$USERI2
 70
0
  9
$USERI3
 70
0
  9
$USERI4
 70
0
  9
$USERI5
 70
0
  9
$USERR1
 40
0
  9
$USERR2
 40
0
  9
$USERR3
 40
0
  9
$USERR4
 40
0
  9
$USERR5
 40
0
  9
$WORLDVIEW
 70
1
  9
$SHADEDGE
 70
3
  9
$SHADEDIF
 70
70
  9
$TILEMODE
 70
1
  9
$MAXACTVP
 70
48
  9
$PINSBASE
 10
0
 20
0
 30
0
  9
$PLIMCHECK
 70
0
  9
$PEXTMIN
 10
1E+20
 20
1E+20
 30
1E+20
  9
$PEXTMAX
 10
-1E+20
 20
-1E+20
 30
-1E+20
  9
$PLIMMAX
 10
0
 20
0
  9
$PLIMMIN
 10
0
 20
0
  9
$UNITMODE
 70
0
  9
$VISRETAIN
 70
1
  9
$PLINEGEN
 70
1
  9
$PSLTSCALE
 70
1
  9
$TREEDEPTH
 70
3020
  0
ENDSEC
  0
SECTION
  2
TABLES
  0
TABLE
  2
LTYPE
 70
7
  0
LTYPE
  2
Continuous
  3
Solid line
 70
64
 72
65
 73
0
 40
0
  0
LTYPE
  2
ByBlock
  3

 70
64
 72
65
 73
0
 40
0
  0
LTYPE
  2
ByLayer
  3

 70
64
 72
65
 73
0
 40
0
  0
LTYPE
  2
OutlineType
  3

 70
64
 72
65
 73
0
 40
0
  0
LTYPE
  2
BendingLineType
  3

 70
64
 72
65
 73
2
 40
7
 49
5
 49
-2
  0
LTYPE
  2
BendEdgeLineType
  3

 70
64
 72
65
 73
2
 40
3
 49
1
 49
-2
  0
LTYPE
  2
IllegalLineType
  3

 70
64
 72
65
 73
4
 40
6
 49
2
 49
-2
 49
0
 49
-2
  0
ENDTAB
  0
TABLE
  2
LAYER
 70
3
  0
LAYER
 70
0
  2
Outline
 62
5
  6
Continuous
  0
LAYER
 70
0
  2
BendingLines
 62
3
  6
Continuous
  0
LAYER
 70
64
  2
0
 62
7
  6
Continuous
  0
ENDTAB
  0
TABLE
  2
STYLE
 70
1
  0
STYLE
  2
Standard
 70
64
 40
0
 41
1
 50
0
 71
0
 42
0.2
  3
txt.shx
  0
ENDTAB
  0
TABLE
  2
APPID
 70
4
  0
APPID
  2
ACAD
 70
64
  0
APPID
  2
ACAD_MLEADERVER
 70
64
  0
APPID
  2
POS3000_V3_PRODUCT
 70
64
  0
APPID
  2
POS3000_V3_BENDINGLINE
 70
64
  0
ENDTAB
  0
TABLE
  2
DIMSTYLE
 70
1
  0
DIMSTYLE
  2
Standard
 70
64
  3

  4

  5

  6

  7

 40
1
 41
0.18
 42
0.0625
 43
0.38
 44
0.18
 45
0
 46
0
 47
0
 48
0
140
0.18
141
0.09
142
0
143
1
144
1
145
0
146
1
147
0.09
 71
0
 72
0
 73
1
 74
1
 75
0
 76
0
 77
0
 78
0
170
0
171
2
172
0
173
0
174
0
175
0
176
0
177
0
178
0
  0
ENDTAB
  0
ENDSEC
  0
SECTION
  2
BLOCKS
  0
BLOCK
  8
Outline
  2
*Model_Space
 70
64
 10
0
 20
0
 30
0
  3
*Model_Space
  0
ENDBLK
  8
0
  0
BLOCK
  8
Outline
 67
1
  2
*Paper_Space
 70
64
 10
0
 20
0
 30
0
  3
*Paper_Space
  0
ENDBLK
  8
0
  0
ENDSEC
  0
SECTION
  2
ENTITIES
  0
ARC
  5
5df7f0be
330
1F
  8
Layer
  6
Continuous
100
AcDbCircle
 10
10.98872703820865
 20
13.061652668665298
 30
0.0
 40
0.7155642726050918
100
AcDbArc
 50
91.41705284816264
 51
99.67926462891609
  0
ARC
  5
6235a68c
330
1F
  8
Layer
  6
Continuous
100
AcDbCircle
 10
10.939852066410566
 20
13.34820740391099
 30
0.0
 40
0.4248713432793296
100
AcDbArc
 50
99.67926441134976
 51
114.86214987617277
  0
ARC
  5
e60df479
330
1F
  8
Layer
  6
Continuous
100
AcDbCircle
 10
10.943934023698736
 20
13.339398343370789
 30
0.0
 40
0.4345802012401489
100
AcDbArc
 50
114.86214970695544
 51
122.27261436521968
  0
ARC
  5
563eb0be
330
1F
  8
Layer
  6
Continuous
100
AcDbCircle
 10
10.935916042298079
 20
13.352094967487218
 30
0.0
 40
0.41956380054973164
100
AcDbArc
 50
122.2726143498292
 51
129.81471365955068
  0
ARC
  5
9da3105a
330
1F
  8
Layer
  6
Continuous
100
AcDbCircle
 10
10.803339721417693
 20
13.511134946397313
 30
0.0
 40
0.21251260941598782
100
AcDbArc
 50
129.81471400304656
 51
145.01201842543844
  0
ARC
  5
b007409e
330
1F
  8
Layer
  6
Continuous
100
AcDbCircle
 10
10.960766055976142
 20
13.400953047615955
 30
0.0
 40
0.40466645827562914
100
AcDbArc
 50
145.01201869899128
 51
156.00975706222283
  0
ARC
  5
06b98a50
330
1F
  8
Layer
  6
Continuous
100
AcDbCircle
 10
11.123813799621818
 20
13.32839278280682
 30
0.0
 40
0.5831309049789367
100
AcDbArc
 50
156.0097570984503
 51
163.82433395984168
  0
ARC
  5
f8e7a9c5
330
1F
  8
Layer
  6
Continuous
100
AcDbCircle
 10
11.37282497474956
 20
13.256163017997395
 30
0.0
 40
0.8424062494737891
100
AcDbArc
 50
163.8243339505699
 51
175.29549968036832
  0
ARC
  5
63a5c37b
330
1F
  8
Layer
  6
Continuous
100
AcDbCircle
 10
11.31885377965882
 20
13.260604529044816
 30
0.0
 40
0.788252607676519
100
AcDbArc
 50
175.29549991368876
 51
178.45520106890586
  0
ARC
  5
68477dcd
330
1F
  8
Layer
  6
Continuous
100
AcDbCircle
 10
9.105978208144847
 20
13.32028215137786
 30
0.0
 40
1.425427521341812
100
AcDbArc
 50
-4.789797803070951
 51
-1.5447985783132225
  0
ARC
  5
67e54606
330
1F
  8
Layer
  6
Continuous
100
AcDbCircle
 10
10.145483809583276
 20
13.233178825912185
 30
0.0
 40
0.38227897739946254
100
AcDbArc
 50
-13.46682987714822
 51
-4.789797799703887
  0
ARC
  5
dbfedf11
330
1F
  8
Layer
  6
Continuous
100
AcDbCircle
 10
10.41585512314642
 20
13.16843394098196
 30
0.0
 40
0.10426360494231125
100
AcDbArc
 50
-30.124356519904232
 51
-13.466830003744338
  0
ARC
  5
d76cbaca
330
1F
  8
Layer
  6
Continuous
100
AcDbCircle
 10
10.446783324106876
 20
13.150487919521868
 30
0.0
 40
0.06850590226307744
100
AcDbArc
 50
-46.27894581528367
 51
-30.12435614715224
  0
ARC
  5
550c70d0
330
1F
  8
Layer
  6
Continuous
100
AcDbCircle
 10
10.452733434363559
 20
13.144266063187505
 30
0.0
 40
0.05989687744535727
100
AcDbArc
 50
-79.07802295696185
 51
-46.27894544276155
  0
ARC
  5
6a190a96
330
1F
  8
Layer
  6
Continuous
100
AcDbCircle
 10
10.44778816164986
 20
13.169893554721412
 30
0.0
 40
0.0859971464963328
100
AcDbArc
 50
-98.4533601439536
 51
-79.0780226653843
  0
ARC
  5
73e75d7d
330
1F
  8
Layer
  6
Continuous
100
AcDbCircle
 10
10.47316787595691
 20
13.340664005224331
 30
0.0
 40
0.2586432488655352
100
AcDbArc
 50
-116.58958081680873
 51
-98.45335959699253
  0
ARC
  5
617337a4
330
1F
  8
Layer
  6
Continuous
100
AcDbCircle
 10
10.458204756899939
 20
13.31076976943718
 30
0.0
 40
0.2252133181864137
100
AcDbArc
 50
-136.71419899967705
 51
-116.58958087923959
  0
ARC
  5
182c2e74
330
1F
  8
Layer
  6
Continuous
100
AcDbCircle
 10
10.565110721683894
 20
13.41146284398585
 30
0.0
 40
0.37207373003539446
100
AcDbArc
 50
-147.78368156289798
 51
-136.71419920011726
  0
ARC
  5
3685b1bb
330
1F
  8
Layer
  6
Continuous
100
AcDbCircle
 10
10.690607636033144
 20
13.490542392442098
 30
0.0
 40
0.5204079826381806
100
AcDbArc
 50
-152.9324347217523
 51
-147.78368178730486
  0
ARC
  5
3de411ac
330
1F
  8
Layer
  6
Continuous
100
AcDbCircle
 10
10.815111018379305
 20
13.554165081062083
 30
0.0
 40
0.6602255020085003
100
AcDbArc
 50
-161.13817455734622
 51
-152.9324347232193
  0
ARC
  5
a3018282
330
1F
  8
Layer
  6
Continuous
100
AcDbCircle
 10
10.610593997430968
 20
13.484295457017183
 30
0.0
 40
0.4441029066563299
100
AcDbArc
 50
-166.85615861545543
 51
-161.1381744663083
  0
ARC
  5
ceb13d5e
330
1F
  8
Layer
  6
Continuous
100
AcDbCircle
 10
10.756811892556714
 20
13.518439391182492
 30
0.0
 40
0.5942544337724022
100
AcDbArc
 50
-171.79873013320667
 51
-166.8561584424523
  0
ARC
  5
8d646489
330
1F
  8
Layer
  6
Continuous
100
AcDbCircle
 10
11.928792539255126
 20
13.687350901894101
 30
0.0
 40
1.7783446899127464
100
AcDbArc
 50
-173.0826175206489
 51
-171.79872997042577
  0
ARC
  5
4af5d3e3
330
1F
  8
Layer
  6
Continuous
100
AcDbCircle
 10
9.725430034829364
 20
13.42003646571937
 30
0.0
 40
0.4411740267681433
100
AcDbArc
 50
6.9173827556517296
 51
12.094305074940022
  0
ARC
  5
9788ea26
330
1F
  8
Layer
  6
Continuous
100
AcDbCircle
 10
9.846461952754435
 20
13.445970876623601
 30
0.0
 40
0.3173947117531911
100
AcDbArc
 50
12.094305326710092
 51
20.336713732996785
  0
ARC
  5
9d32d69f
330
1F
  8
Layer
  6
Continuous
100
AcDbCircle
 10
10.09889702748498
 20
13.53953337792394
 30
0.0
 40
0.048178425834616054
100
AcDbArc
 50
20.336713330539727
 51
37.54689633381191
  0
ARC
  5
5df80791
330
1F
  8
Layer
  6
Continuous
100
AcDbCircle
 10
10.122062202607037
 20
13.557338785999416
 30
0.0
 40
0.018961001321667226
100
AcDbArc
 50
37.54689471548618
 51
57.77311277584091
  0
ARC
  5
9989bfec
330
1F
  8
Layer
  6
Continuous
100
AcDbCircle
 10
10.127719665827426
 20
13.56631334273269
 30
0.0
 40
0.00835206364399297
100
AcDbArc
 50
57.773111959882975
 51
125.13096452939587
  0
ARC
  5
f2cc04d3
330
1F
  8
Layer
  6
Continuous
100
AcDbCircle
 10
10.134312509342854
 20
13.556943443436408
 30
0.0
 40
0.019808965425948576
100
AcDbArc
 50
125.1309647183271
 51
152.16587752916678
  0
ARC
  5
eef36ab6
330
1F
  8
Layer
  6
Continuous
100
AcDbCircle
 10
10.243779343416335
 20
13.499144785940487
 30
0.0
 40
0.1435977879035938
100
AcDbArc
 50
152.16587693902193
 51
162.12664206480062
  0
ARC
  5
9778be90
330
1F
  8
Layer
  6
Continuous
100
AcDbCircle
 10
10.434284120388057
 20
13.437711229284906
 30
0.0
 40
0.34376309941485483
100
AcDbArc
 50
162.1266420624136
 51
167.79808107130683
  0
ARC
  5
f20e5ed9
330
1F
  8
Layer
  6
Continuous
100
AcDbCircle
 10
10.823768504707687
 20
13.35348806837338
 30
0.0
 40
0.7422497697851073
100
AcDbArc
 50
167.79808092175583
 51
174.30007991291595
  0
ARC
  5
f5ba6f9f
330
1F
  8
Layer
  6
Continuous
100
AcDbCircle
 10
10.714482464214317
 20
13.364396110819381
 30
0.0
 40
0.6324207024271326
100
AcDbArc
 50
174.30007985714138
 51
-173.4482210151317
  0
ARC
  5
6cdbd7e7
330
1F
  8
Layer
  6
Continuous
100
AcDbCircle
 10
10.674448235893303
 20
13.359798134477504
 30
0.0
 40
0.5921232977501626
100
AcDbArc
 50
-173.44822094402835
 51
-149.68892686947135
  0
ARC
  5
0033b092
330
1F
  8
Layer
  6
Continuous
100
AcDbCircle
 10
10.766891242352557
 20
13.413841435658163
 30
0.0
 40
0.699204518539474
100
AcDbArc
 50
-149.68892682040794
 51
-143.86875755533163
  0
ARC
  5
23c407c4
330
1F
  8
Layer
  6
Continuous
100
AcDbCircle
 10
12.48728166759054
 20
14.669809223833333
 30
0.0
 40
2.8292745409059106
100
AcDbArc
 50
-143.86875748370323
 51
-142.02772909615527
  0
ARC
  5
8f8811f8
330
1F
  8
Layer
  6
Continuous
100
AcDbCircle
 10
41.058389802205284
 20
36.96974607975714
 30
0.0
 40
39.072831262315546
100
AcDbArc
 50
-142.0277290399425
 51
-141.86183471338896
  0
ARC
  5
d46af079
330
1F
  8
Layer
  6
Continuous
100
AcDbCircle
 10
9.258703848028562
 20
12.001384304510873
 30
0.0
 40
1.3578392308118585
100
AcDbArc
 50
34.443782894512296
 51
38.13816535665757
  0
ARC
  5
b48bdb1b
330
1F
  8
Layer
  6
Continuous
100
AcDbCircle
 10
9.632740545483585
 20
12.257912622624522
 30
0.0
 40
0.9042863352888788
100
AcDbArc
 50
27.765776100212566
 51
34.4437828404545
  0
ARC
  5
ba05c984
330
1F
  8
Layer
  6
Continuous
100
AcDbCircle
 10
10.036945959330502
 20
12.470717503500266
 30
0.0
 40
0.4474844811905226
100
AcDbArc
 50
18.267113560276208
 51
27.76577599391828
  0
ARC
  5
170280a4
330
1F
  8
Layer
  6
Continuous
100
AcDbCircle
 10
10.121277276877276
 20
12.498553732216779
 30
0.0
 40
0.3586777993004021
100
AcDbArc
 50
6.809508322174246
 51
18.267113529504723
  0
ARC
  5
516a192c
330
1F
  8
Layer
  6
Continuous
100
AcDbCircle
 10
10.205543503063685
 20
12.508616054724353
 30
0.0
 40
0.27381292311510685
100
AcDbArc
 50
-18.651923615573164
 51
6.809508290588708
  0
ARC
  5
d7fa10a7
330
1F
  8
Layer
  6
Continuous
100
AcDbCircle
 10
10.298094506601487
 20
12.477375799543859
 30
0.0
 40
0.17613159532111908
100
AcDbArc
 50
-49.86996996872689
 51
-18.651923520123532
  0
ARC
  5
618703ef
330
1F
  8
Layer
  6
Continuous
100
AcDbCircle
 10
10.276734621280909
 20
12.502714511656613
 30
0.0
 40
0.20927212990403174
100
AcDbArc
 50
-101.51197089805079
 51
-49.869969839948745
  0
ARC
  5
fdad2532
330
1F
  8
Layer
  6
Continuous
100
AcDbCircle
 10
10.291435450676607
 20
12.574894203453468
 30
0.0
 40
0.2829336686662
100
AcDbArc
 50
-106.89742219226738
 51
-101.51197082127808
  0
ARC
  5
511b0a16
330
1F
  8
Layer
  6
Continuous
100
AcDbCircle
 10
10.2007743319191
 20
12.276445050441819
 30
0.0
 40
0.02898192149840452
100
AcDbArc
 50
73.10257784366688
 51
101.7579613498767
  0
ARC
  5
26583392
330
1F
  8
Layer
  6
Continuous
100
AcDbCircle
 10
10.197372880486387
 20
12.29278677130344
 30
0.0
 40
0.012289955988966365
100
AcDbArc
 50
101.75796324240416
 51
136.93667144196226
  0
ARC
  5
308e4776
330
1F
  8
Layer
  6
Continuous
100
AcDbCircle
 10
10.196021724197044
 20
12.294049539977248
 30
0.0
 40
0.010440575540876067
100
AcDbArc
 50
136.9366718021816
 51
175.21533774567047
  0
ARC
  5
55036412
330
1F
  8
Layer
  6
Continuous
100
AcDbCircle
 10
10.20818504240616
 20
12.293031435627535
 30
0.0
 40
0.022646428494404118
100
AcDbArc
 50
175.2153354319915
 51
-154.0910515248954
  0
ARC
  5
a2c8cea1
330
1F
  8
Layer
  6
Continuous
100
AcDbCircle
 10
10.30029889612364
 20
12.337777298724479
 30
0.0
 40
0.12505323642715657
100
AcDbArc
 50
-154.09105186564943
 51
-138.07790725602723
  0
ARC
  5
9c28e763
330
1F
  8
Layer
  6
Continuous
100
AcDbCircle
 10
10.357765883594025
 20
12.389379488128135
 30
0.0
 40
0.20228820648717585
100
AcDbArc
 50
-138.07790749160597
 51
-123.35059328644454
  0
ARC
  5
d567466f
330
1F
  8
Layer
  6
Continuous
100
AcDbCircle
 10
10.423921207155436
 20
12.489897800133477
 30
0.0
 40
0.32262298069612166
100
AcDbArc
 50
-123.35059356687802
 51
-108.08153062465628
  0
ARC
  5
98b53b15
330
1F
  8
Layer
  6
Continuous
100
AcDbCircle
 10
10.450067102645992
 20
12.56997867376419
 30
0.0
 40
0.40686402872178085
100
AcDbArc
 50
-108.08153066692503
 51
-98.7958830628414
  0
ARC
  5
3915dcb4
330
1F
  8
Layer
  6
Continuous
100
AcDbCircle
 10
10.505197398231823
 20
12.926268055803785
 30
0.0
 40
0.7673934633669105
100
AcDbArc
 50
-98.79588300506008
 51
-92.03810093943112
  0
ARC
  5
f923f0be
330
1F
  8
Layer
  6
Continuous
100
AcDbCircle
 10
10.513528482456193
 20
13.160375430281285
 30
0.0
 40
1.0016490284002773
100
AcDbArc
 50
-92.03810109688455
 51
-90.22088374547414
  0
ARC
  5
cc7dbccf
330
1F
  8
Layer
  6
Continuous
100
AcDbCircle
 10
10.515613997517638
 20
13.701341129862511
 30
0.0
 40
1.5426187479747442
100
AcDbArc
 50
-90.22088380334208
 51
-88.7565875299769
  0
ARC
  5
11ab26ba
330
1F
  8
Layer
  6
Continuous
100
AcDbCircle
 10
10.395263245774442
 20
19.24616857035858
 30
0.0
 40
7.088752144163783
100
AcDbArc
 50
-88.75658752998991
 51
-88.35368629273161
  0
ARC
  5
26fcca30
330
1F
  8
Layer
  6
Continuous
100
AcDbCircle
 10
10.604514582433005
 20
11.965709976048972
 30
0.0
 40
0.19471292854371572
100
AcDbArc
 50
79.99330014514088
 51
91.64631358743657
  0
ARC
  5
7bcb5295
330
1F
  8
Layer
  6
Continuous
100
AcDbCircle
 10
10.605656727737449
 20
11.972182978897967
 30
0.0
 40
0.188139933657094
100
AcDbArc
 50
34.51541730701375
 51
79.99330008182055
  0
ARC
  5
d85c1637
330
1F
  8
Layer
  6
Continuous
100
AcDbCircle
 10
10.5731855498461
 20
11.949853289193051
 30
0.0
 40
0.22754795867699892
100
AcDbArc
 50
4.526276791960507
 51
34.51541740050501
  0
ARC
  5
2ecbe01c
330
1F
  8
Layer
  6
Continuous
100
AcDbCircle
 10
10.587929832429314
 20
11.951020493895296
 30
0.0
 40
0.21275754841525724
100
AcDbArc
 50
-16.78227921471067
 51
4.526276685705923
  0
ARC
  5
98801c47
330
1F
  8
Layer
  6
Continuous
100
AcDbCircle
 10
10.633850952951065
 20
11.937171586605889
 30
0.0
 40
0.16479358753749365
100
AcDbArc
 50
-50.30968847995661
 51
-16.782279364459974
  0
ARC
  5
adfba184
330
1F
  8
Layer
  6
Continuous
100
AcDbCircle
 10
10.451017677871649
 20
12.157471113655392
 30
0.0
 40
0.45107996181070253
100
AcDbArc
 50
-55.08762793757858
 51
-50.309688194748226
  0
ARC
  5
630eeb42
330
1F
  8
Layer
  6
Continuous
100
AcDbCircle
 10
10.54242714619168
 20
12.026498989991191
 30
0.0
 40
0.29136337508389637
100
AcDbArc
 50
-63.43236824886465
 51
-55.08762768333667
  0
ARC
  5
3341b7ac
330
1F
  8
Layer
  6
Continuous
100
AcDbCircle
 10
11.47678840395867
 20
10.157986885674443
 30
0.0
 40
1.7977437174305373
100
AcDbArc
 50
116.56763195476222
 51
117.94166206439698
  0
ARC
  5
81efc595
330
1F
  8
Layer
  6
Continuous
100
AcDbCircle
 10
10.66252924002768
 20
11.69315446562763
 30
0.0
 40
0.059998775103005365
100
AcDbArc
 50
117.94166356134687
 51
125.46812459235356
  0
ARC
  5
fab1b865
330
1F
  8
Layer
  6
Continuous
100
AcDbCircle
 10
10.65134685166997
 20
11.70885006008122
 30
0.0
 40
0.040727099134523354
100
AcDbArc
 50
125.46812567549141
 51
143.1394469837445
  0
ARC
  5
d44bb376
330
1F
  8
Layer
  6
Continuous
100
AcDbCircle
 10
10.629019753162972
 20
11.725589694946166
 30
0.0
 40
0.012821639038818436
100
AcDbArc
 50
143.13944705657173
 51
-140.408798657255
  0
ARC
  5
00d694ee
330
1F
  8
Layer
  6
Continuous
100
AcDbCircle
 10
10.63645425799935
 20
11.731738129603404
 30
0.0
 40
0.022469183332391396
100
AcDbArc
 50
-140.4087983475226
 51
-111.4865340546372
  0
ARC
  5
08063989
330
1F
  8
Layer
  6
Continuous
100
AcDbCircle
 10
10.665584350423263
 20
11.805740180194706
 30
0.0
 40
0.1019982080739492
100
AcDbArc
 50
-111.48653334788074
 51
-98.02457404800329
  0
ARC
  5
147e7082
330
1F
  8
Layer
  6
Continuous
100
AcDbCircle
 10
10.68065455030968
 20
11.912637540201882
 30
0.0
 40
0.2099526267010734
100
AcDbArc
 50
-98.02457383579831
 51
-91.04658725618742
  0
ARC
  5
71e6faaf
330
1F
  8
Layer
  6
Continuous
100
AcDbCircle
 10
10.687194004014321
 20
12.270602383066867
 30
0.0
 40
0.5679771973412858
100
AcDbArc
 50
-91.04658722373895
 51
-85.63847000088722
  0
ARC
  5
3c186b8c
330
1F
  8
Layer
  6
Continuous
100
AcDbCircle
 10
10.69828014023531
 20
12.125249392566356
 30
0.0
 40
0.42220204766291464
100
AcDbArc
 50
-85.63847000089696
 51
-73.53434070956294
  0
ARC
  5
7f4b1b6b
330
1F
  8
Layer
  6
Continuous
100
AcDbCircle
 10
10.707944192744659
 20
12.09255214620637
 30
0.0
 40
0.38810653724835703
100
AcDbArc
 50
-73.53434070956197
 51
-60.90765023009039
  0
ARC
  5
41a6953c
330
1F
  8
Layer
  6
Continuous
100
AcDbCircle
 10
10.675033365994743
 20
12.151699814937544
 30
0.0
 40
0.45579382729379897
100
AcDbArc
 50
-60.90765023010001
 51
-52.73043419324354
  0
ARC
  5
f690626c
330
1F
  8
Layer
  6
Continuous
100
AcDbCircle
 10
10.418404782471308
 20
12.488944449227043
 30
0.0
 40
0.8795769950084965
100
AcDbArc
 50
-52.73043419324039
 51
-46.84640292051219
  0
ARC
  5
8ea3a5c5
330
1F
  8
Layer
  6
Continuous
100
AcDbCircle
 10
9.505451323869515
 20
13.462720346314677
 30
0.0
 40
2.214389159817388
100
AcDbArc
 50
-46.84640292052526
 51
-45.70690686850705
  0
ARC
  5
fa0eabdd
330
1F
  8
Layer
  6
Continuous
100
AcDbCircle
 10
11.486103600358394
 20
11.432581003941994
 30
0.0
 40
0.6218846615563465
100
AcDbArc
 50
130.23482669195306
 51
134.29309313150537
  0
ARC
  5
b76ee807
330
1F
  8
Layer
  6
Continuous
100
AcDbCircle
 10
11.378243024343304
 20
11.560059504393374
 30
0.0
 40
0.4548976203356597
100
AcDbArc
 50
121.91434509828406
 51
130.23482669195477
  0
ARC
  5
808559c3
330
1F
  8
Layer
  6
Continuous
100
AcDbCircle
 10
11.24086983139212
 20
11.78063565077672
 30
0.0
 40
0.19504144762673414
100
AcDbArc
 50
109.19242491684535
 51
121.91434509829136
  0
ARC
  5
61bfdaae
330
1F
  8
Layer
  6
Continuous
100
AcDbCircle
 10
11.224087716462812
 20
11.82884784318097
 30
0.0
 40
0.14399191405467396
100
AcDbArc
 50
93.2360596023474
 51
109.19242491683815
  0
ARC
  5
57081a03
330
1F
  8
Layer
  6
Continuous
100
AcDbCircle
 10
11.22299800353426
 20
11.848121137839144
 30
0.0
 40
0.12468783776888773
100
AcDbArc
 50
69.75700530867444
 51
93.23605946179339
  0
ARC
  5
2103c19c
330
1F
  8
Layer
  6
Continuous
100
AcDbCircle
 10
11.212828855043194
 20
11.820546074120516
 30
0.0
 40
0.1540782396055383
100
AcDbArc
 50
53.99141236302458
 51
69.75700510671632
  0
ARC
  5
77a02bb4
330
1F
  8
Layer
  6
Continuous
100
AcDbCircle
 10
11.121336825096993
 20
11.694657782214293
 30
0.0
 40
0.3097016748032717
100
AcDbArc
 50
42.88898590348423
 51
53.99141228497597
  0
ARC
  5
b9bc9025
330
1F
  8
Layer
  6
Continuous
100
AcDbCircle
 10
11.06894199246633
 20
11.64598826471065
 30
0.0
 40
0.3812134949481436
100
AcDbArc
 50
32.41377302608669
 51
42.88898595087082
  0
ARC
  5
8b4dc30c
330
1F
  8
Layer
  6
Continuous
100
AcDbCircle
 10
11.165357462333025
 20
11.707207898353772
 30
0.0
 40
0.2670040979047582
100
AcDbArc
 50
7.740361435045018
 51
32.413773051238195
  0
ARC
  5
a878dd8c
330
1F
  8
Layer
  6
Continuous
100
AcDbCircle
 10
11.181040514130022
 20
11.709339580944853
 30
0.0
 40
0.25117683710775274
100
AcDbArc
 50
-5.539430698713504
 51
7.740361436120445
  0
ARC
  5
8f905483
330
1F
  8
Layer
  6
Continuous
100
AcDbCircle
 10
11.17073845235343
 20
11.710338713247086
 30
0.0
 40
0.26152723527430144
100
AcDbArc
 50
-18.55262568388703
 51
-5.5394308158666465
  0
ARC
  5
42b2e235
330
1F
  8
Layer
  6
Continuous
100
AcDbCircle
 10
12.723321468622023
 20
11.189265531478142
 30
0.0
 40
1.376163603426488
100
AcDbArc
 50
161.44737435700316
 51
162.96007280717328
  0
ARC
  5
fa374488
330
1F
  8
Layer
  6
Continuous
100
AcDbCircle
 10
11.516437676444607
 20
11.559166773446995
 30
0.0
 40
0.11386592988405571
100
AcDbArc
 50
162.9600724513311
 51
173.11512478128023
  0
ARC
  5
8696b97f
330
1F
  8
Layer
  6
Continuous
100
AcDbCircle
 10
11.453863368359992
 20
11.566722336357692
 30
0.0
 40
0.050837122476918954
100
AcDbArc
 50
173.11512383047614
 51
-169.788423638936
  0
ARC
  5
9115bd81
330
1F
  8
Layer
  6
Continuous
100
AcDbCircle
 10
11.41142408377138
 20
11.559077451061968
 30
0.0
 40
0.007714771571872558
100
AcDbArc
 50
-169.7884248187924
 51
-124.92695719931382
  0
ARC
  5
f53e1055
330
1F
  8
Layer
  6
Continuous
100
AcDbCircle
 10
11.411004716083113
 20
11.558476903469405
 30
0.0
 40
0.006982291764030263
100
AcDbArc
 50
-124.92695930390047
 51
-80.597576918628
  0
ARC
  5
eb0d3cdd
330
1F
  8
Layer
  6
Continuous
100
AcDbCircle
 10
11.406614213510887
 20
11.58499082711165
 30
0.0
 40
0.03385727380576508
100
AcDbArc
 50
-80.59757868119975
 51
-60.86763103769507
  0
ARC
  5
4cb4270f
330
1F
  8
Layer
  6
Continuous
100
AcDbCircle
 10
11.378070942734638
 20
11.636204855271624
 30
0.0
 40
0.09248828084962096
100
AcDbArc
 50
-60.86763103766502
 51
-43.74851283528617
  0
ARC
  5
2b2dda25
330
1F
  8
Layer
  6
Continuous
100
AcDbCircle
 10
11.2713731830212
 20
11.738340432321522
 30
0.0
 40
0.24019098233873593
100
AcDbArc
 50
-43.74851283530529
 51
-33.149897700022464
  0
ARC
  5
94508d57
330
1F
  8
Layer
  6
Continuous
100
AcDbCircle
 10
11.164643510734061
 20
11.808049154011936
 30
0.0
 40
0.3676685443888156
100
AcDbArc
 50
-33.1498977000038
 51
-24.014149734460126
  0
ARC
  5
2a520d11
330
1F
  8
Layer
  6
Continuous
100
AcDbCircle
 10
10.784715953227233
 20
11.97731623915506
 30
0.0
 40
0.7835967774602841
100
AcDbArc
 50
-24.014149734462755
 51
-13.46443636621687
  0
ARC
  5
7da48555
330
1F
  8
Layer
  6
Continuous
100
AcDbCircle
 10
10.911854396582575
 20
11.946876450664472
 30
0.0
 40
0.6528651267318876
100
AcDbArc
 50
-13.464436366213745
 51
-6.257530208320938
  0
ARC
  5
702738f7
330
1F
  8
Layer
  6
Continuous
100
AcDbCircle
 10
12.320760767982573
 20
11.792388716130988
 30
0.0
 40
0.7644857908226874
100
AcDbArc
 50
167.5889255572835
 51
173.7424697916771
  0
ARC
  5
c4296b3e
330
1F
  8
Layer
  6
Continuous
100
AcDbCircle
 10
11.986811237215823
 20
11.865879953119487
 30
0.0
 40
0.42254537055413893
100
AcDbArc
 50
158.47823854959182
 51
167.58892555728394
  0
ARC
  5
05d23efd
330
1F
  8
Layer
  6
Continuous
100
AcDbCircle
 10
11.741824375197526
 20
11.962490346618141
 30
0.0
 40
0.15919744348134665
100
AcDbArc
 50
143.60924796078575
 51
158.47823854957886
  0
ARC
  5
1059a3e5
330
1F
  8
Layer
  6
Continuous
100
AcDbCircle
 10
11.714048923233234
 20
11.982961256712903
 30
0.0
 40
0.12469332935087588
100
AcDbArc
 50
131.58591422025071
 51
143.60924796080977
  0
ARC
  5
112d831c
330
1F
  8
Layer
  6
Continuous
100
AcDbCircle
 10
11.665220835211635
 20
12.037984895940701
 30
0.0
 40
0.051128507229728705
100
AcDbArc
 50
120.28641525524733
 51
131.58591422023693
  0
ARC
  5
a48d94a1
330
1F
  8
Layer
  6
Continuous
100
AcDbCircle
 10
11.641303853271875
 20
12.07893619174188
 30
0.0
 40
0.003704561243526164
100
AcDbArc
 50
40.40732951405759
 51
120.28641563408858
  0
ARC
  5
2209d9b9
330
1F
  8
Layer
  6
Continuous
100
AcDbCircle
 10
11.613484531232215
 20
12.05525395461089
 30
0.0
 40
0.04023897015176927
100
AcDbArc
 50
28.535004706206344
 51
40.40733079859237
  0
ARC
  5
95c03ae1
330
1F
  8
Layer
  6
Continuous
100
AcDbCircle
 10
11.563419369346999
 20
12.028031172079736
 30
0.0
 40
0.09722669096363823
100
AcDbArc
 50
21.23655288149128
 51
28.53500474682244
  0
ARC
  5
77da6d3e
330
1F
  8
Layer
  6
Continuous
100
AcDbCircle
 10
12.17131689851152
 20
12.264265361430743
 30
0.0
 40
0.5549588640608942
100
AcDbArc
 50
-158.76344699648018
 51
-153.6507496387045
  0
ARC
  5
e381d68e
330
1F
  8
Layer
  6
Continuous
100
AcDbCircle
 10
11.932320150753359
 20
12.145890085027174
 30
0.0
 40
0.28825274957793123
100
AcDbArc
 50
-153.65074961605274
 51
-147.19433283594492
  0
ARC
  5
31a87660
330
1F
  8
Layer
  6
Continuous
100
AcDbCircle
 10
11.840452144955607
 20
12.086672333937173
 30
0.0
 40
0.178952829480005
100
AcDbArc
 50
-147.1943328259878
 51
-138.9974329136192
  0
ARC
  5
61ba40a8
330
1F
  8
Layer
  6
Continuous
100
AcDbCircle
 10
12.053142309601103
 20
12.271577803508
 30
0.0
 40
0.4607810374616334
100
AcDbArc
 50
-138.99743299249812
 51
-124.95812815834903
  0
ARC
  5
2a19fa3a
330
1F
  8
Layer
  6
Continuous
100
AcDbCircle
 10
12.124982109066815
 20
12.37433541630751
 30
0.0
 40
0.5861607956984697
100
AcDbArc
 50
-124.95812825057239
 51
-115.9364724957006
  0
ARC
  5
054a9443
330
1F
  8
Layer
  6
Continuous
100
AcDbCircle
 10
12.416957588144898
 20
12.974662317576083
 30
0.0
 40
1.2537250763258887
100
AcDbArc
 50
-115.93647255377903
 51
-112.99838313840377
  0
ARC
  5
4fb5370f
330
1F
  8
Layer
  6
Continuous
100
AcDbCircle
 10
11.540160696042252
 20
10.908896198997587
 30
0.0
 40
0.9904145019240297
100
AcDbArc
 50
63.282164647918556
 51
67.0016170586746
  0
ARC
  5
52cdab04
330
1F
  8
Layer
  6
Continuous
100
AcDbCircle
 10
11.7581993210934
 20
11.342081763116413
 30
0.0
 40
0.5054499929389487
100
AcDbArc
 50
56.87783620281809
 51
63.282164966710035
  0
ARC
  5
e8ea12cd
330
1F
  8
Layer
  6
Continuous
100
AcDbCircle
 10
11.841665811247019
 20
11.47001089871534
 30
0.0
 40
0.35270013626584784
100
AcDbArc
 50
41.77089324155984
 51
56.8778363289647
  0
ARC
  5
81d4a311
330
1F
  8
Layer
  6
Continuous
100
AcDbCircle
 10
11.905135762121716
 20
11.526701591724642
 30
0.0
 40
0.2675986125549794
100
AcDbArc
 50
35.10862071586176
 51
41.77089319463289
  0
ARC
  5
92f24404
330
1F
  8
Layer
  6
Continuous
100
AcDbCircle
 10
11.92490208802375
 20
11.540598042157956
 30
0.0
 40
0.24343626634624205
100
AcDbArc
 50
25.588466588222346
 51
35.10862063951807
  0
ARC
  5
b50f79cd
330
1F
  8
Layer
  6
Continuous
100
AcDbCircle
 10
11.863143683660427
 20
11.5110236575237
 30
0.0
 40
0.3119106756974636
100
AcDbArc
 50
5.417235041207236
 51
25.588466449113458
  0
ARC
  5
0c17ce79
330
1F
  8
Layer
  6
Continuous
100
AcDbCircle
 10
12.010206949724445
 20
11.524969863262804
 30
0.0
 40
0.16418762103119422
100
AcDbArc
 50
-10.90379720561024
 51
5.417235126302047
  0
ARC
  5
59e37eca
330
1F
  8
Layer
  6
Continuous
100
AcDbCircle
 10
12.062808932533812
 20
11.514836702060386
 30
0.0
 40
0.11061851098229432
100
AcDbArc
 50
-18.752160750595614
 51
-10.903796965741288
  0
ARC
  5
266e2892
330
1F
  8
Layer
  6
Continuous
100
AcDbCircle
 10
11.703661788706976
 20
11.63676583177
 30
0.0
 40
0.48989859692237925
100
AcDbArc
 50
-22.479310635186966
 51
-18.752160425136164
  0
ARC
  5
f1f7a5c6
330
1F
  8
Layer
  6
Continuous
100
AcDbCircle
 10
12.033774144202477
 20
11.500168451297043
 30
0.0
 40
0.13264097054771096
100
AcDbArc
 50
-30.1564036097492
 51
-22.4793108112875
  0
ARC
  5
1c5e3f5e
330
1F
  8
Layer
  6
Continuous
100
AcDbCircle
 10
12.141706900716944
 20
11.437459984034094
 30
0.0
 40
0.007813762795236082
100
AcDbArc
 50
-62.178344567248594
 51
-30.15640518594347
  0
ARC
  5
fee8958f
330
1F
  8
Layer
  6
Continuous
100
AcDbCircle
 10
12.142949893247742
 20
11.435104597568516
 30
0.0
 40
0.005150517437811013
100
AcDbArc
 50
-129.4800376611679
 51
-62.17834643864888
  0
ARC
  5
13447239
330
1F
  8
Layer
  6
Continuous
100
AcDbCircle
 10
12.289100364420333
 20
11.612525208056471
 30
0.0
 40
0.235015767638638
100
AcDbArc
 50
-132.72287219065333
 51
-129.4800369992803
  0
ARC
  5
2ef2dcea
330
1F
  8
Layer
  6
Continuous
100
AcDbCircle
 10
12.020124483984258
 20
11.321272208496145
 30
0.0
 40
0.16143893848710328
100
AcDbArc
 50
47.27712798674307
 51
58.113803857700795
  0
ARC
  5
0b351ce0
330
1F
  8
Layer
  6
Continuous
100
AcDbCircle
 10
12.032653667138119
 20
11.341411997592395
 30
0.0
 40
0.13771992637984262
100
AcDbArc
 50
58.11380369337802
 51
69.8496331758001
  0
ARC
  5
5cdcef58
330
1F
  8
Layer
  6
Continuous
100
AcDbCircle
 10
11.869053890314586
 20
10.895569398716088
 30
0.0
 40
0.6126309811569345
100
AcDbArc
 50
69.84963316146191
 51
71.96919964880442
  0
ARC
  5
afe3f912
330
1F
  8
Layer
  6
Continuous
100
AcDbCircle
 10
12.098984935950995
 20
11.601932136827738
 30
0.0
 40
0.13021261176154858
100
AcDbArc
 50
-118.01510508902018
 51
-108.03080052648588
  0
ARC
  5
8f322cba
330
1F
  8
Layer
  6
Continuous
100
AcDbCircle
 10
12.066465567990278
 20
11.54081097854993
 30
0.0
 40
0.06097891128421199
100
AcDbArc
 50
-134.6540839997892
 51
-118.01510542624024
  0
ARC
  5
8855d4ed
330
1F
  8
Layer
  6
Continuous
100
AcDbCircle
 10
12.03255701401296
 20
11.506490495264229
 30
0.0
 40
0.012732817081710137
100
AcDbArc
 50
164.4308349543596
 51
-134.6540844661689
  0
ARC
  5
7020e94a
330
1F
  8
Layer
  6
Continuous
100
AcDbCircle
 10
12.038333999403172
 20
11.504880882553305
 30
0.0
 40
0.018729850788290897
100
AcDbArc
 50
138.36577852807477
 51
164.43083413541666
  0
ARC
  5
f219d7cc
330
1F
  8
Layer
  6
Continuous
100
AcDbCircle
 10
11.829750921996565
 20
11.690292507908367
 30
0.0
 40
0.26034786418948325
100
AcDbArc
 50
-41.63422147190504
 51
-38.18793255801548
  0
ARC
  5
9965eca0
330
1F
  8
Layer
  6
Continuous
100
AcDbCircle
 10
12.014172222838935
 20
11.545230139219557
 30
0.0
 40
0.025711321822356983
100
AcDbArc
 50
-38.18793255800882
 51
-21.468995775965972
  0
ARC
  5
02b0cf5d
330
1F
  8
Layer
  6
Continuous
100
AcDbCircle
 10
12.028436562297408
 20
11.539620181034367
 30
0.0
 40
0.010383470993682207
100
AcDbArc
 50
-21.468995576167828
 51
37.50837445342058
  0
ARC
  5
bd2d883f
330
1F
  8
Layer
  6
Continuous
100
AcDbCircle
 10
12.0189043430568
 20
11.532303638336039
 30
0.0
 40
0.02239991808537522
100
AcDbArc
 50
37.50837403703314
 51
58.02434225785115
  0
ARC
  5
cbf95406
330
1F
  8
Layer
  6
Continuous
100
AcDbCircle
 10
11.990240472185453
 20
11.48638846383087
 30
0.0
 40
0.07652773665558193
100
AcDbArc
 50
58.024340782263025
 51
75.83040317539134
  0
ARC
  5
be0758e1
330
1F
  8
Layer
  6
Continuous
100
AcDbCircle
 10
11.99203226734312
 20
11.493485403070256
 30
0.0
 40
0.06920810029476714
100
AcDbArc
 50
75.83040311729751
 51
89.8744332893315
  0
ARC
  5
a63e8bee
330
1F
  8
Layer
  6
Continuous
100
AcDbCircle
 10
11.991555295356665
 20
11.275844118089708
 30
0.0
 40
0.2868499079289166
100
AcDbArc
 50
89.87443350631891
 51
96.75963151123473
  0
ARC
  5
eab9c4e0
330
1F
  8
Layer
  6
Continuous
100
AcDbCircle
 10
12.051037288511347
 20
10.774006043659908
 30
0.0
 40
0.7922008359552372
100
AcDbArc
 50
96.75963148624118
 51
99.54983041375016
  0
ARC
  5
c5862390
330
1F
  8
Layer
  6
Continuous
100
AcDbCircle
 10
11.866742499106179
 20
11.869454786150479
 30
0.0
 40
0.3186423198620315
100
AcDbArc
 50
-87.3906520056215
 51
-80.45016968542863
  0
ARC
  5
baf9e594
330
1F
  8
Layer
  6
Continuous
100
AcDbCircle
 10
11.874574544690011
 20
11.697598469303124
 30
0.0
 40
0.14660762981852352
100
AcDbArc
 50
-100.58531138356649
 51
-87.39065159704167
  0
ARC
  5
d00fa5a1
330
1F
  8
Layer
  6
Continuous
100
AcDbCircle
 10
11.85683126828564
 20
11.602653499074455
 30
0.0
 40
0.0500189595238944
100
AcDbArc
 50
-123.27299154417776
 51
-100.58531137529825
  0
ARC
  5
00930b0f
330
1F
  8
Layer
  6
Continuous
100
AcDbCircle
 10
11.852980458802158
 20
11.596785175817613
 30
0.0
 40
0.04299998869300548
100
AcDbArc
 50
-164.79083132600869
 51
-123.27299129106726
  0
ARC
  5
c2dd55cd
330
1F
  8
Layer
  6
Continuous
100
AcDbCircle
 10
11.905424984962812
 20
11.611043050571432
 30
0.0
 40
0.09734808264956682
100
AcDbArc
 50
176.50340009958703
 51
-164.79083126689642
  0
ARC
  5
f011f96d
330
1F
  8
Layer
  6
Continuous
100
AcDbCircle
 10
12.583830234125873
 20
11.569590414003462
 30
0.0
 40
0.7770185933901983
100
AcDbArc
 50
174.32853178855373
 51
176.5033998774893
  0
ARC
  5
7455ed6e
330
1F
  8
Layer
  6
Continuous
100
AcDbCircle
 10
11.75701872478254
 20
11.651701362358256
 30
0.0
 40
0.053860146151453146
100
AcDbArc
 50
-5.671468238129039
 51
11.298304945642272
  0
ARC
  5
74286787
330
1F
  8
Layer
  6
Continuous
100
AcDbCircle
 10
11.788916419361476
 20
11.658074169593647
 30
0.0
 40
0.021332072253503927
100
AcDbArc
 50
11.298304280133419
 51
30.348149839422184
  0
ARC
  5
83cd2c93
330
1F
  8
Layer
  6
Continuous
100
AcDbCircle
 10
11.79930435150543
 20
11.664156103554058
 30
0.0
 40
0.009294669920515532
100
AcDbArc
 50
30.348149284340618
 51
94.12030309564074
  0
ARC
  5
51df057c
330
1F
  8
Layer
  6
Continuous
100
AcDbCircle
 10
11.800132814618223
 20
11.652655598684142
 30
0.0
 40
0.020824976221400313
100
AcDbArc
 50
94.12030407927257
 51
121.9305991914961
  0
ARC
  5
51ba3af9
330
1F
  8
Layer
  6
Continuous
100
AcDbCircle
 10
11.870550482732671
 20
11.53965944669866
 30
0.0
 40
0.15396692433018574
100
AcDbArc
 50
121.93060023893693
 51
132.07157187734128
  0
ARC
  5
5620c019
330
1F
  8
Layer
  6
Continuous
100
AcDbCircle
 10
12.002123967241223
 20
11.393898857315346
 30
0.0
 40
0.3503281507550911
100
AcDbArc
 50
132.07157108168397
 51
138.94694172922266
  0
ARC
  5
43aa5f34
330
1F
  8
Layer
  6
Continuous
100
AcDbCircle
 10
11.948856437502767
 20
11.44029028705908
 30
0.0
 40
0.2796910891082116
100
AcDbArc
 50
138.94694168584954
 51
146.64285605841766
  0
ARC
  5
e7d00cf6
330
1F
  8
Layer
  6
Continuous
100
AcDbCircle
 10
12.483346785178732
 20
11.088432164088065
 30
0.0
 40
0.9196005127452268
100
AcDbArc
 50
146.6428561237983
 51
149.54374528045219
  0
ARC
  5
0f57d8f7
330
1F
  8
Layer
  6
Continuous
100
AcDbCircle
 10
11.571977265833876
 20
11.624332993387494
 30
0.0
 40
0.13765257882494486
100
AcDbArc
 50
-40.90708417749752
 51
-30.456254517478236
  0
ARC
  5
bc1424dc
330
1F
  8
Layer
  6
Continuous
100
AcDbCircle
 10
11.629282934443086
 20
11.574680862459461
 30
0.0
 40
0.06182861321747315
100
AcDbArc
 50
-56.457643810842406
 51
-40.907083923460405
  0
ARC
  5
69e93120
330
1F
  8
Layer
  6
Continuous
100
AcDbCircle
 10
11.64999697153119
 20
11.54343557639869
 30
0.0
 40
0.024340758737565107
100
AcDbArc
 50
-112.22646113049763
 51
-56.45764327445901
  0
ARC
  5
0a3c96b1
330
1F
  8
Layer
  6
Continuous
100
AcDbCircle
 10
11.654033068578336
 20
11.553312689590637
 30
0.0
 40
0.035010690526498606
100
AcDbArc
 50
-129.23944109988844
 51
-112.2264604397839
  0
ARC
  5
f792f987
330
1F
  8
Layer
  6
Continuous
100
AcDbCircle
 10
11.882951332823339
 20
11.833600061051268
 30
0.0
 40
0.39690098095338416
100
AcDbArc
 50
-134.27540704398552
 51
-129.23944086287696
  0
ARC
  5
2ff87e77
330
1F
  8
Layer
  6
Continuous
100
AcDbCircle
 10
10.153863725629774
 20
10.060215965942337
 30
0.0
 40
2.0799185728566396
100
AcDbArc
 50
45.724593015269775
 51
46.66828633732303
  0
ARC
  5
c1ff5018
330
1F
  8
Layer
  6
Continuous
100
AcDbCircle
 10
11.546547784175878
 20
11.536458429699032
 30
0.0
 40
0.05042092596791166
100
AcDbArc
 50
46.66828637584495
 51
63.45497812053315
  0
ARC
  5
d0a983b7
330
1F
  8
Layer
  6
Continuous
100
AcDbCircle
 10
11.560118436877698
 20
11.563623472115491
 30
0.0
 40
0.02005479114239655
100
AcDbArc
 50
63.454977529206104
 51
86.79386935635148
  0
ARC
  5
d5fa1865
330
1F
  8
Layer
  6
Continuous
100
AcDbCircle
 10
11.560686340498632
 20
11.573761715393875
 30
0.0
 40
0.009900654483163934
100
AcDbArc
 50
86.79386724814844
 51
135.33703424471204
  0
ARC
  5
3458e646
330
1F
  8
Layer
  6
Continuous
100
AcDbCircle
 10
11.5673409937712
 20
11.567184894668737
 30
0.0
 40
0.019256881341717085
100
AcDbArc
 50
135.33703296670146
 51
162.78138942089967
  0
ARC
  5
32266a65
330
1F
  8
Layer
  6
Continuous
100
AcDbCircle
 10
11.612528978063024
 20
11.553180791558239
 30
0.0
 40
0.06656511348251361
100
AcDbArc
 50
162.78138985368258
 51
-173.67891736690225
  0
ARC
  5
fe171fcd
330
1F
  8
Layer
  6
Continuous
100
AcDbCircle
 10
11.667398666684175
 20
11.559258897937138
 30
0.0
 40
0.12177042216325006
100
AcDbArc
 50
-173.67891759135912
 51
-160.9955673501289
  0
ARC
  5
46dbcada
330
1F
  8
Layer
  6
Continuous
100
AcDbCircle
 10
12.62315567233859
 20
11.888435135577039
 30
0.0
 40
1.132625727973263
100
AcDbArc
 50
-160.99556741357773
 51
-158.71471693337733
  0
ARC
  5
e7b4a242
330
1F
  8
Layer
  6
Continuous
100
AcDbCircle
 10
10.697178001143227
 20
11.138097665354959
 30
0.0
 40
0.9343518503188644
100
AcDbArc
 50
18.20900765372711
 51
21.285283157381564
  0
ARC
  5
3e9d10c5
330
1F
  8
Layer
  6
Continuous
100
AcDbCircle
 10
11.477930413166796
 20
11.394932017123022
 30
0.0
 40
0.11244053324825731
100
AcDbArc
 50
2.394085729367845
 51
18.209007784640338
  0
ARC
  5
3846ce87
330
1F
  8
Layer
  6
Continuous
100
AcDbCircle
 10
11.528088738753885
 20
11.39702908725575
 30
0.0
 40
0.06223838858448643
100
AcDbArc
 50
-14.310368026445008
 51
2.3940857175442125
  0
ARC
  5
fa09d18c
330
1F
  8
Layer
  6
Continuous
100
AcDbCircle
 10
11.549186238566213
 20
11.39164733624849
 30
0.0
 40
0.040465291831031765
100
AcDbArc
 50
-55.86318389181244
 51
-14.310368327765064
  0
ARC
  5
a916e567
330
1F
  8
Layer
  6
Continuous
100
AcDbCircle
 10
11.542621930493143
 20
11.401329371787364
 30
0.0
 40
0.05216281091219622
100
AcDbArc
 50
-72.63688871666723
 51
-55.863183798011576
  0
ARC
  5
e813bae7
330
1F
  8
Layer
  6
Continuous
100
AcDbCircle
 10
11.808024981838564
 20
10.552512497015568
 30
0.0
 40
0.837179005579539
100
AcDbArc
 50
107.36311187917808
 51
108.87126032507925
  0
ARC
  5
7ed8e890
330
1F
  8
Layer
  6
Continuous
100
AcDbCircle
 10
11.589080295514322
 20
11.193045836857015
 30
0.0
 40
0.1602597082345305
100
AcDbArc
 50
108.87126016751178
 51
119.76197632641079
  0
ARC
  5
e1ed5c36
330
1F
  8
Layer
  6
Continuous
100
AcDbCircle
 10
11.520691522858403
 20
11.31264333704838
 30
0.0
 40
0.022489659684758734
100
AcDbArc
 50
119.7619753485905
 51
149.11016919369348
  0
ARC
  5
0c84b56c
330
1F
  8
Layer
  6
Continuous
100
AcDbCircle
 10
11.512188345213659
 20
11.317730334262642
 30
0.0
 40
0.01258099828596334
100
AcDbArc
 50
149.11016891459195
 51
-142.74575281708317
  0
ARC
  5
fc5e936a
330
1F
  8
Layer
  6
Continuous
100
AcDbCircle
 10
11.561788479913128
 20
11.355452957276476
 30
0.0
 40
0.07489608192748183
100
AcDbArc
 50
-142.7457521517905
 51
-126.8510421281409
  0
ARC
  5
9d048f0e
330
1F
  8
Layer
  6
Continuous
100
AcDbCircle
 10
11.624443638466074
 20
11.439050469513635
 30
0.0
 40
0.17936719250613178
100
AcDbArc
 50
-126.85104212421274
 51
-122.14823071897239
  0
ARC
  5
c7e96c25
330
1F
  8
Layer
  6
Continuous
100
AcDbCircle
 10
12.36206662621385
 20
12.612726379001922
 30
0.0
 40
1.565586083073964
100
AcDbArc
 50
-122.1482304848033
 51
-120.55681853345433
  0
ARC
  5
8aabd0b9
330
1F
  8
Layer
  6
Continuous
100
AcDbCircle
 10
8.286942913767218
 20
5.710200893264156
 30
0.0
 40
6.450116715371356
100
AcDbArc
 50
59.04419006697773
 51
59.44318143859566
  0
ARC
  5
80de2a99
330
1F
  8
Layer
  6
Continuous
100
AcDbCircle
 10
11.532743289353897
 20
11.121569237054251
 30
0.0
 40
0.13995606525062118
100
AcDbArc
 50
42.402556015769974
 51
59.04418999715906
  0
ARC
  5
ada35732
330
1F
  8
Layer
  6
Continuous
100
AcDbCircle
 10
11.540696263327943
 20
11.128831950792193
 30
0.0
 40
0.1291858839210832
100
AcDbArc
 50
12.89505433370795
 51
42.402556042049994
  0
ARC
  5
ea30a8ee
330
1F
  8
Layer
  6
Continuous
100
AcDbCircle
 10
11.45272834943893
 20
11.108692600221616
 30
0.0
 40
0.21942970540150109
100
AcDbArc
 50
1.7872693397543218
 51
12.895054362979982
  0
ARC
  5
c6b8dcf7
330
1F
  8
Layer
  6
Continuous
100
AcDbCircle
 10
11.097868570428528
 20
11.097619606501574
 30
0.0
 40
0.5744622024341463
100
AcDbArc
 50
-2.36394020437675
 51
1.7872693595729259
  0
ARC
  5
f538f086
330
1F
  8
Layer
  6
Continuous
100
AcDbCircle
 10
11.816518487578536
 20
11.067952324773156
 30
0.0
 40
0.14479981590469834
100
AcDbArc
 50
177.6360599273055
 51
-173.48831324956137
  0
ARC
  5
4e2f4087
330
1F
  8
Layer
  6
Continuous
100
AcDbCircle
 10
11.730454811313777
 20
11.05812882447398
 30
0.0
 40
0.058177315765686535
100
AcDbArc
 50
-173.48831333960413
 51
-156.6874071374169
  0
ARC
  5
a01ad645
330
1F
  8
Layer
  6
Continuous
100
AcDbCircle
 10
11.694475604535256
 20
11.042624354428016
 30
0.0
 40
0.018999619153738306
100
AcDbArc
 50
-156.6874078501678
 51
-111.48677864605934
  0
ARC
  5
7354b103
330
1F
  8
Layer
  6
Continuous
100
AcDbCircle
 10
11.692043640583517
 20
11.036446273485277
 30
0.0
 40
0.012360106159731616
100
AcDbArc
 50
-111.48677934335464
 51
-49.44408147487267
  0
ARC
  5
dcb51a02
330
1F
  8
Layer
  6
Continuous
100
AcDbCircle
 10
11.664720087745582
 20
11.068374891657784
 30
0.0
 40
0.05438406596950232
100
AcDbArc
 50
-49.44408144940801
 51
-38.132067153680794
  0
ARC
  5
768a7d9f
330
1F
  8
Layer
  6
Continuous
100
AcDbCircle
 10
11.555915538508966
 20
11.15378693386565
 30
0.0
 40
0.19270849218808947
100
AcDbArc
 50
-38.13206715369703
 51
-31.77190083489259
  0
ARC
  5
e794a417
330
1F
  8
Layer
  6
Continuous
100
AcDbCircle
 10
11.771865087497204
 20
11.020039116719289
 30
0.0
 40
0.061304669478073344
100
AcDbArc
 50
128.14277722562286
 51
148.2280991650904
  0
ARC
  5
ea71c99e
330
1F
  8
Layer
  6
Continuous
100
AcDbCircle
 10
11.754459005235377
 20
11.04220381610034
 30
0.0
 40
0.033122306228022626
100
AcDbArc
 50
101.38257684556193
 51
128.14277722565055
  0
ARC
  5
2eb2d4d2
330
1F
  8
Layer
  6
Continuous
100
AcDbCircle
 10
11.754244324825484
 20
11.04327018601914
 30
0.0
 40
0.03203454132598053
100
AcDbArc
 50
74.16324163888628
 51
101.38257692511151
  0
ARC
  5
8ff71d6d
330
1F
  8
Layer
  6
Continuous
100
AcDbCircle
 10
11.748808840559512
 20
11.024108522562845
 30
0.0
 40
0.05195221778730331
100
AcDbArc
 50
55.00846282603997
 51
74.16324160359389
  0
ARC
  5
60726d87
330
1F
  8
Layer
  6
Continuous
100
AcDbCircle
 10
11.681675996799278
 20
10.928202742030193
 30
0.0
 40
0.1690194525326122
100
AcDbArc
 50
41.62914126495593
 51
55.008462249280115
  0
ARC
  5
eed11e28
330
1F
  8
Layer
  6
Continuous
100
AcDbCircle
 10
11.743811722584146
 20
10.983425960578762
 30
0.0
 40
0.08589032234544314
100
AcDbArc
 50
29.05414805992581
 51
41.629141330967144
  0
ARC
  5
ae9dfd5b
330
1F
  8
Layer
  6
Continuous
100
AcDbCircle
 10
11.523706318710754
 20
10.86114746986342
 30
0.0
 40
0.3376807473140883
100
AcDbArc
 50
22.721639912661583
 51
29.054148562756513
  0
ARC
  5
ed3e7441
330
1F
  8
Layer
  6
Continuous
100
AcDbCircle
 10
-45.928871191953434
 20
-13.197286601063716
 30
0.0
 40
62.62417135775084
100
AcDbArc
 50
22.686694460601487
 51
22.721640051915188
  0
ARC
  5
1b2dd75b
330
1F
  8
Layer
  6
Continuous
100
AcDbCircle
 10
11.923647033973792
 20
10.987161843887105
 30
0.0
 40
0.07990675259001738
100
AcDbArc
 50
-157.31330564479103
 51
-147.7664584338207
  0
ARC
  5
2504d579
330
1F
  8
Layer
  6
Continuous
100
AcDbCircle
 10
11.887750842976939
 20
10.964527447816
 30
0.0
 40
0.03747030111741852
100
AcDbArc
 50
-147.76645833766852
 51
-131.4939846088284
  0
ARC
  5
ee7107e7
330
1F
  8
Layer
  6
Continuous
100
AcDbCircle
 10
11.869818204727407
 20
10.944253999163857
 30
0.0
 40
0.010403859998579582
100
AcDbArc
 50
-131.49398381419047
 51
-53.79090366230761
  0
ARC
  5
58412542
330
1F
  8
Layer
  6
Continuous
100
AcDbCircle
 10
11.856088575483732
 20
10.96300691044102
 30
0.0
 40
0.03364551227499873
100
AcDbArc
 50
-53.7909030722491
 51
-29.19435385977084
  0
ARC
  5
254b5caf
330
1F
  8
Layer
  6
Continuous
100
AcDbCircle
 10
11.626949191104629
 20
11.09103895231785
 30
0.0
 40
0.2961280092548628
100
AcDbArc
 50
-29.194353859748542
 51
-20.95995596908713
  0
ARC
  5
32f90fcd
330
1F
  8
Layer
  6
Continuous
100
AcDbCircle
 10
11.264034114974983
 20
11.230058059941046
 30
0.0
 40
0.6847585082722923
100
AcDbArc
 50
-20.959955969094707
 51
-18.326258553433174
  0
ARC
  5
9b3cf748
330
1F
  8
Layer
  6
Continuous
100
AcDbCircle
 10
11.989051885929282
 20
10.989912684561636
 30
0.0
 40
0.0789957516278788
100
AcDbArc
 50
149.35381323722797
 51
161.67374144658535
  0
ARC
  5
ee0a3815
330
1F
  8
Layer
  6
Continuous
100
AcDbCircle
 10
11.979992909379986
 20
10.995280009681531
 30
0.0
 40
0.06846611559127377
100
AcDbArc
 50
127.44899641295046
 51
149.35381323723942
  0
ARC
  5
41794014
330
1F
  8
Layer
  6
Continuous
100
AcDbCircle
 10
11.977474987552734
 20
10.998567484518944
 30
0.0
 40
0.06432517111751297
100
AcDbArc
 50
85.03685151220817
 51
127.44899641292793
  0
ARC
  5
e64db385
330
1F
  8
Layer
  6
Continuous
100
AcDbCircle
 10
11.976251756517094
 20
10.984481552480716
 30
0.0
 40
0.078464116465456
100
AcDbArc
 50
56.42568925940578
 51
85.03685129858555
  0
ARC
  5
210ae424
330
1F
  8
Layer
  6
Continuous
100
AcDbCircle
 10
11.94577930154311
 20
10.938572176990878
 30
0.0
 40
0.13356621506440633
100
AcDbArc
 50
34.591754928508564
 51
56.42568914257002
  0
ARC
  5
f937c378
330
1F
  8
Layer
  6
Continuous
100
AcDbCircle
 10
11.495771685770364
 20
10.628228281882283
 30
0.0
 40
0.6802106950371263
100
AcDbArc
 50
33.25504768028775
 51
34.591755021703285
  0
ARC
  5
68d32f23
330
1F
  8
Layer
  6
Continuous
100
AcDbCircle
 10
12.087351730277927
 20
11.016159678672192
 30
0.0
 40
0.027219667383754923
100
AcDbArc
 50
-146.74495278632492
 51
-121.10904158856266
  0
ARC
  5
72724b8a
330
1F
  8
Layer
  6
Continuous
100
AcDbCircle
 10
12.079477840102477
 20
11.003111637575268
 30
0.0
 40
0.011979932380741513
100
AcDbArc
 50
-121.1090417407831
 51
-88.53766526268646
  0
ARC
  5
efa2e280
330
1F
  8
Layer
  6
Continuous
100
AcDbCircle
 10
12.079531250379537
 20
11.00101941774247
 30
0.0
 40
0.009887030929058606
100
AcDbArc
 50
-88.53766457711312
 51
-52.577794758710766
  0
ARC
  5
6a9e5c93
330
1F
  8
Layer
  6
Continuous
100
AcDbCircle
 10
12.073298780865514
 20
11.009164605250582
 30
0.0
 40
0.020143139147361058
100
AcDbArc
 50
-52.57779475868476
 51
-24.15872159719429
  0
ARC
  5
50641053
330
1F
  8
Layer
  6
Continuous
100
AcDbCircle
 10
11.97571576432955
 20
11.052935676442562
 30
0.0
 40
0.12709336957980036
100
AcDbArc
 50
-24.158721597234845
 51
-10.324244023098435
  0
ARC
  5
17a9945e
330
1F
  8
Layer
  6
Continuous
100
AcDbCircle
 10
11.813876629356749
 20
11.082417579295768
 30
0.0
 40
0.2915959172943881
100
AcDbArc
 50
-10.324244023104335
 51
-5.746130730686762
  0
ARC
  5
b38d5c02
330
1F
  8
Layer
  6
Continuous
100
AcDbCircle
 10
12.219555701533434
 20
11.041595518428338
 30
0.0
 40
0.11613187211369162
100
AcDbArc
 50
162.74237485976312
 51
174.25386926930392
  0
ARC
  5
45318c43
330
1F
  8
Layer
  6
Continuous
100
AcDbCircle
 10
12.29268514843079
 20
11.018877550461857
 30
0.0
 40
0.19270877510695314
100
AcDbArc
 50
146.83535519681055
 51
162.74237485974916
  0
ARC
  5
d9f2affd
330
1F
  8
Layer
  6
Continuous
100
AcDbCircle
 10
12.173202362586473
 20
11.096959636810855
 30
0.0
 40
0.04997493776719934
100
AcDbArc
 50
127.17891840454425
 51
146.83535519680592
  0
ARC
  5
82ce84de
330
1F
  8
Layer
  6
Continuous
100
AcDbCircle
 10
12.155491367293934
 20
11.12031084748763
 30
0.0
 40
0.020666945779970948
100
AcDbArc
 50
102.32365558149696
 51
127.17891840455528
  0
ARC
  5
4799c945
330
1F
  8
Layer
  6
Continuous
100
AcDbCircle
 10
12.15346846469364
 20
11.129570347768997
 30
0.0
 40
0.011189051478443594
100
AcDbArc
 50
53.485207410026774
 51
102.32365561030002
  0
ARC
  5
ad1d2fc4
330
1F
  8
Layer
  6
Continuous
100
AcDbCircle
 10
12.14965553450813
 20
11.124420249242807
 30
0.0
 40
0.017597011483707195
100
AcDbArc
 50
31.421504609294185
 51
53.485208295545874
  0
ARC
  5
4c871202
330
1F
  8
Layer
  6
Continuous
100
AcDbCircle
 10
11.879314856009719
 20
10.959264284452809
 30
0.0
 40
0.33439438387921105
100
AcDbArc
 50
25.36537638202716
 51
31.421505582954218
  0
ARC
  5
1a68c3b9
330
1F
  8
Layer
  6
Continuous
100
AcDbCircle
 10
12.106983394372385
 20
11.067200704082522
 30
0.0
 40
0.082435589544355
100
AcDbArc
 50
16.171796028259575
 51
25.36537632763886
  0
ARC
  5
266af6d2
330
1F
  8
Layer
  6
Continuous
100
AcDbCircle
 10
12.156919784088682
 20
11.081681914094201
 30
0.0
 40
0.03044185471697273
100
AcDbArc
 50
-17.9641671562288
 51
16.171796095392587
  0
ARC
  5
83200df1
330
1F
  8
Layer
  6
Continuous
100
AcDbCircle
 10
12.113620204577327
 20
11.0957208674342
 30
0.0
 40
0.0759604860314432
100
AcDbArc
 50
-31.67412066878921
 51
-17.964166807824217
  0
ARC
  5
9cb3b2b9
330
1F
  8
Layer
  6
Continuous
100
AcDbCircle
 10
-0.308463406931768
 20
18.760007146210917
 30
0.0
 40
14.672173879044305
100
AcDbArc
 50
-31.864399384828847
 51
-31.674120424283526
  0
ARC
  5
df15da45
330
1F
  8
Layer
  6
Continuous
100
AcDbCircle
 10
14.09907503618702
 20
9.804519984619459
 30
0.0
 40
2.2918443445775782
100
AcDbArc
 50
148.1356010135614
 51
149.24165178806086
  0
ARC
  5
464904d1
330
1F
  8
Layer
  6
Continuous
100
AcDbCircle
 10
11.664761336285853
 20
11.25326471482167
 30
0.0
 40
0.5409536508352946
100
AcDbArc
 50
-35.44555870502213
 51
-30.75834781729702
  0
ARC
  5
f56fd6b1
330
1F
  8
Layer
  6
Continuous
100
AcDbCircle
 10
11.534825463684061
 20
11.3457609172176
 30
0.0
 40
0.7004493512364596
100
AcDbArc
 50
-45.73879492672987
 51
-35.44555854666975
  0
ARC
  5
953df6ea
330
1F
  8
Layer
  6
Continuous
100
AcDbCircle
 10
11.651983341572329
 20
11.225542040002283
 30
0.0
 40
0.5325846831547157
100
AcDbArc
 50
-52.34723514905314
 51
-45.73879508603419
  0
ARC
  5
80eaf7d1
330
1F
  8
Layer
  6
Continuous
100
AcDbCircle
 10
11.72782015267711
 20
11.127253310527248
 30
0.0
 40
0.4084400245488836
100
AcDbArc
 50
-56.535392968209344
 51
-52.34723511235542
  0
ARC
  5
d94ddec0
330
1F
  8
Layer
  6
Continuous
100
AcDbCircle
 10
11.191291729742339
 20
11.938948284758304
 30
0.0
 40
1.3814310213257428
100
AcDbArc
 50
-58.81234782705112
 51
-56.53539265151913
  0
ARC
  5
d6124c90
330
1F
  8
Layer
  6
Continuous
100
AcDbCircle
 10
11.659828607285782
 20
11.164925530851953
 30
0.0
 40
0.476644842616689
100
AcDbArc
 50
-63.16901437430745
 51
-58.81234757555017
  0
ARC
  5
787bacee
330
1F
  8
Layer
  6
Continuous
100
AcDbCircle
 10
11.861801433452024
 20
10.765624017331737
 30
0.0
 40
0.02916889777818263
100
AcDbArc
 50
-80.84611246064252
 51
-63.169015214711806
  0
ARC
  5
c79d599d
330
1F
  8
Layer
  6
Continuous
100
AcDbCircle
 10
11.865210289999167
 20
10.744469238128284
 30
0.0
 40
0.007741229073774628
100
AcDbArc
 50
-114.0551841735435
 51
-80.84611236645415
  0
ARC
  5
e8527653
330
1F
  8
Layer
  6
Continuous
100
AcDbCircle
 10
11.863464773845006
 20
10.740558884954686
 30
0.0
 40
0.0034589763270641066
100
AcDbArc
 50
-164.6735608895576
 51
-114.0551841920921
  0
ARC
  5
f53b5061
330
1F
  8
Layer
  6
Continuous
100
AcDbCircle
 10
11.867581768938326
 20
10.741687209722862
 30
0.0
 40
0.007727789438562176
100
AcDbArc
 50
170.11304438881
 51
-164.67355991176763
  0
ARC
  5
dacd86e4
330
1F
  8
Layer
  6
Continuous
100
AcDbCircle
 10
11.959951971057379
 20
10.725587706016853
 30
0.0
 40
0.10149051262370944
100
AcDbArc
 50
163.2074840922378
 51
170.11304877415475
  0
ARC
  5
b1b79617
330
1F
  8
Layer
  6
Continuous
100
AcDbCircle
 10
12.49763131021353
 20
10.563329374415623
 30
0.0
 40
0.6631192493612529
100
AcDbArc
 50
161.5095234440128
 51
163.20748409223884
  0
ARC
  5
0f812ead
330
1F
  8
Layer
  6
Continuous
100
AcDbCircle
 10
11.671485288269837
 20
10.83960128350737
 30
0.0
 40
0.2079969411246008
100
AcDbArc
 50
-18.49047655597564
 51
-13.075356798289834
  0
ARC
  5
a07cde24
330
1F
  8
Layer
  6
Continuous
100
AcDbCircle
 10
11.71276106680646
 20
10.830014821375435
 30
0.0
 40
0.16562253670387356
100
AcDbArc
 50
-13.075356798314214
 51
0.9623081001260348
  0
ARC
  5
f6a0b126
330
1F
  8
Layer
  6
Continuous
100
AcDbCircle
 10
11.844557333494038
 20
10.832228606280292
 30
0.0
 40
0.0338076788297009
100
AcDbArc
 50
0.9623083992432103
 51
20.871951650257724
  0
ARC
  5
f74f10ca
330
1F
  8
Layer
  6
Continuous
100
AcDbCircle
 10
11.865201760948757
 20
10.840100368953966
 30
0.0
 40
0.011713402817036641
100
AcDbArc
 50
20.871951124528305
 51
51.66763021416493
  0
ARC
  5
1b420160
330
1F
  8
Layer
  6
Continuous
100
AcDbCircle
 10
11.868448827586153
 20
10.844207096237463
 30
0.0
 40
0.006478075632542017
100
AcDbArc
 50
51.66762989685048
 51
93.50452492656873
  0
ARC
  5
30ded929
330
1F
  8
Layer
  6
Continuous
100
AcDbCircle
 10
11.86885909600415
 20
10.837507947546907
 30
0.0
 40
0.013189775369045085
100
AcDbArc
 50
93.50452442882164
 51
125.21669165291131
  0
ARC
  5
413faa5a
330
1F
  8
Layer
  6
Continuous
100
AcDbCircle
 10
11.936380589202082
 20
10.741849303989012
 30
0.0
 40
0.13027832361786096
100
AcDbArc
 50
125.21669142771124
 51
135.19138185802856
  0
ARC
  5
564486ef
330
1F
  8
Layer
  6
Continuous
100
AcDbCircle
 10
12.26364487810905
 20
10.416764036779762
 30
0.0
 40
0.591561691787895
100
AcDbArc
 50
135.1913823508479
 51
138.80016706901523
  0
ARC
  5
99d5af90
330
1F
  8
Layer
  6
Continuous
100
AcDbCircle
 10
11.765133062043887
 20
10.853175573574962
 30
0.0
 40
0.0709857104442259
100
AcDbArc
 50
-57.455133872684435
 51
-41.199832637942336
  0
ARC
  5
65031cee
330
1F
  8
Layer
  6
Continuous
100
AcDbCircle
 10
11.72799289985199
 20
10.911373330398042
 30
0.0
 40
0.14002461648190112
100
AcDbArc
 50
-67.43289130666268
 51
-57.45513328866147
  0
ARC
  5
60eee755
330
1F
  8
Layer
  6
Continuous
100
AcDbCircle
 10
11.72626979711506
 20
10.915519523209193
 30
0.0
 40
0.14451460510875178
100
AcDbArc
 50
-80.6888624046644
 51
-67.43289087942738
  0
ARC
  5
e36a720d
330
1F
  8
Layer
  6
Continuous
100
AcDbCircle
 10
11.725390604819822
 20
10.920881897342213
 30
0.0
 40
0.1499485756123964
100
AcDbArc
 50
-99.90344195471151
 51
-80.68886259754112
  0
ARC
  5
9d111abe
330
1F
  8
Layer
  6
Continuous
100
AcDbCircle
 10
11.786625086093657
 20
11.271615258531988
 30
0.0
 40
0.5059872706279133
100
AcDbArc
 50
-104.32178078597438
 51
-99.90344182876437
  0
ARC
  5
5926a71e
330
1F
  8
Layer
  6
Continuous
100
AcDbCircle
 10
11.943943573258823
 20
11.887821480169176
 30
0.0
 40
1.1419583501498651
100
AcDbArc
 50
-106.2897623491848
 51
-104.32178070555769
  0
ARC
  5
f89ce3c2
330
1F
  8
Layer
  6
Continuous
100
AcDbCircle
 10
11.429181608177805
 20
10.126304506542063
 30
0.0
 40
0.6932315389543897
100
AcDbArc
 50
73.71023768925009
 51
79.73291690980396
  0
ARC
  5
65740923
330
1F
  8
Layer
  6
Continuous
100
AcDbCircle
 10
11.457100000741224
 20
10.280432787113059
 30
0.0
 40
0.5365951334954521
100
AcDbArc
 50
79.73291687591154
 51
85.0247835155236
  0
ARC
  5
cdbe48ed
330
1F
  8
Layer
  6
Continuous
100
AcDbCircle
 10
11.437778349844391
 20
10.058479587639024
 30
0.0
 40
0.7593877477135639
100
AcDbArc
 50
85.02478351191225
 51
89.47268485268916
  0
ARC
  5
8323bf50
330
1F
  8
Layer
  6
Continuous
100
AcDbCircle
 10
11.443573809390323
 20
10.688171289612143
 30
0.0
 40
0.12966937662601918
100
AcDbArc
 50
89.47268504082807
 51
99.51779899064424
  0
ARC
  5
e6013a57
330
1F
  8
Layer
  6
Continuous
100
AcDbCircle
 10
11.42487549389393
 20
10.7996951806687
 30
0.0
 40
0.016588850986996362
100
AcDbArc
 50
99.51780052680571
 51
127.8541682943567
  0
ARC
  5
1aa5d8a1
330
1F
  8
Layer
  6
Continuous
100
AcDbCircle
 10
11.42086467623376
 20
10.804855814289915
 30
0.0
 40
0.010052889108623122
100
AcDbArc
 50
127.85416980983308
 51
-166.09952333358478
  0
ARC
  5
6e3ae5e3
330
1F
  8
Layer
  6
Continuous
100
AcDbCircle
 10
11.44612540558377
 20
10.811107436413504
 30
0.0
 40
0.036075710371324544
100
AcDbArc
 50
-166.09952242123973
 51
-132.66072606798994
  0
ARC
  5
7fa5e0a7
330
1F
  8
Layer
  6
Continuous
100
AcDbCircle
 10
11.584375828450774
 20
10.961134195111743
 30
0.0
 40
0.24008847406126166
100
AcDbArc
 50
-132.66072579615786
 51
-126.36572180038267
  0
ARC
  5
0dbbbc63
330
1F
  8
Layer
  6
Continuous
100
AcDbCircle
 10
11.096887626106218
 20
10.299092405489198
 30
0.0
 40
0.5820697093996537
100
AcDbArc
 50
48.813205223759
 51
53.63427828674864
  0
ARC
  5
ca15a37f
330
1F
  8
Layer
  6
Continuous
100
AcDbCircle
 10
11.244123650662441
 20
10.467356993358912
 30
0.0
 40
0.3584821013841697
100
AcDbArc
 50
42.422671037588636
 51
48.81320534092986
  0
ARC
  5
b0067b5b
330
1F
  8
Layer
  6
Continuous
100
AcDbCircle
 10
11.310804142702866
 20
10.528293049706326
 30
0.0
 40
0.26815220056540295
100
AcDbArc
 50
35.03247151947785
 51
42.422671221318794
  0
ARC
  5
84db1015
330
1F
  8
Layer
  6
Continuous
100
AcDbCircle
 10
12.4174333016354
 20
11.304098155898574
 30
0.0
 40
1.0833290823955173
100
AcDbArc
 50
-144.96752859910217
 51
-142.88074505698305
  0
ARC
  5
5ce58a42
330
1F
  8
Layer
  6
Continuous
100
AcDbCircle
 10
11.966268042775763
 20
10.962646146709853
 30
0.0
 40
0.5175203113598446
100
AcDbArc
 50
-142.8807450732074
 51
-136.48691822522835
  0
ARC
  5
a70dec47
330
1F
  8
Layer
  6
Continuous
100
AcDbCircle
 10
11.929232171591432
 20
10.927484342848278
 30
0.0
 40
0.46645164968575914
100
AcDbArc
 50
-136.48691822109424
 51
-124.67629674663425
  0
ARC
  5
d9e11517
330
1F
  8
Layer
  6
Continuous
100
AcDbCircle
 10
11.799606490169516
 20
10.740115512150398
 30
0.0
 40
0.23861421641109523
100
AcDbArc
 50
-124.67629693841141
 51
-108.13505940907775
  0
ARC
  5
b8e82277
330
1F
  8
Layer
  6
Continuous
100
AcDbCircle
 10
12.007635373737717
 20
11.375264317221077
 30
0.0
 40
0.9069629434850267
100
AcDbArc
 50
-108.13505937382726
 51
-104.83572082441745
  0
ARC
  5
0e372375
330
1F
  8
Layer
  6
Continuous
100
AcDbCircle
 10
11.63579569171018
 20
9.971451938081938
 30
0.0
 40
0.5452608495147407
100
AcDbArc
 50
69.67496329298176
 51
75.16427905433179
  0
ARC
  5
c345773e
330
1F
  8
Layer
  6
Continuous
100
AcDbCircle
 10
11.687362386538968
 20
10.110667845308283
 30
0.0
 40
0.396801451562237
100
AcDbArc
 50
64.07166007825131
 51
69.67496304019309
  0
ARC
  5
efdec990
330
1F
  8
Layer
  6
Continuous
100
AcDbCircle
 10
11.868241943862635
 20
10.482706150414318
 30
0.0
 40
0.016877064587412907
100
AcDbArc
 50
-115.92834035702711
 51
-82.3295547928057
  0
ARC
  5
f206df25
330
1F
  8
Layer
  6
Continuous
100
AcDbCircle
 10
11.869041757983297
 20
10.476767529235541
 30
0.0
 40
0.010884825929562993
100
AcDbArc
 50
-82.32955545124999
 51
-10.63046564917802
  0
ARC
  5
13258104
330
1F
  8
Layer
  6
Continuous
100
AcDbCircle
 10
11.836368791583789
 20
10.482900092044263
 30
0.0
 40
0.04412833747612237
100
AcDbArc
 50
-10.630465692064373
 51
10.946570461908527
  0
ARC
  5
45c14110
330
1F
  8
Layer
  6
Continuous
100
AcDbCircle
 10
11.793516652500532
 20
10.474611942793244
 30
0.0
 40
0.08777463447847986
100
AcDbArc
 50
10.946570524111147
 51
26.32614078638618
  0
ARC
  5
7f3b3ebe
330
1F
  8
Layer
  6
Continuous
100
AcDbCircle
 10
11.666414100100164
 20
10.411721777356536
 30
0.0
 40
0.22958518322343205
100
AcDbArc
 50
26.32614094395358
 51
38.443613569947075
  0
ARC
  5
dc9feaa5
330
1F
  8
Layer
  6
Continuous
100
AcDbCircle
 10
11.54129832308965
 20
10.312401075768339
 30
0.0
 40
0.38933047868128523
100
AcDbArc
 50
38.44361337476027
 51
42.00818899320309
  0
ARC
  5
51a38d91
330
1F
  8
Layer
  6
Continuous
100
AcDbCircle
 10
11.902493104882707
 20
10.637715807313063
 30
0.0
 40
0.09676760293861697
100
AcDbArc
 50
-152.3687410174685
 51
-137.99181069433433
  0
ARC
  5
06c8e356
330
1F
  8
Layer
  6
Continuous
100
AcDbCircle
 10
11.85699832320921
 20
10.613900095989763
 30
0.0
 40
0.04541623231081499
100
AcDbArc
 50
-167.17449339126864
 51
-152.36874199084602
  0
ARC
  5
e05709c1
330
1F
  8
Layer
  6
Continuous
100
AcDbCircle
 10
11.827489589692979
 20
10.607182059845968
 30
0.0
 40
0.015152436062470844
100
AcDbArc
 50
132.53284357792157
 51
-167.1744947777979
  0
ARC
  5
b9fd5048
330
1F
  8
Layer
  6
Continuous
100
AcDbCircle
 10
11.833434341204253
 20
10.600701963436023
 30
0.0
 40
0.02394628163838236
100
AcDbArc
 50
109.01568546062028
 51
132.5328435779039
  0
ARC
  5
5b0f2b75
330
1F
  8
Layer
  6
Continuous
100
AcDbCircle
 10
11.871819798364076
 20
10.489321564414665
 30
0.0
 40
0.1417556047309343
100
AcDbArc
 50
99.40642423675285
 51
109.01568546063407
  0
ARC
  5
9a309b9a
330
1F
  8
Layer
  6
Continuous
100
AcDbCircle
 10
11.940091416654164
 20
10.077212919676692
 30
0.0
 40
0.5594810515637985
100
AcDbArc
 50
96.40980483883459
 51
99.40642423677886
  0
ARC
  5
7a7d95f7
330
1F
  8
Layer
  6
Continuous
100
AcDbCircle
 10
11.836490151362014
 20
10.99941434180926
 30
0.0
 40
0.3685214727611442
100
AcDbArc
 50
-83.59019516118427
 51
-75.13556120275051
  0
ARC
  5
ff32d624
330
1F
  8
Layer
  6
Continuous
100
AcDbCircle
 10
11.832584737283291
 20
11.014128713795717
 30
0.0
 40
0.3837453028338339
100
AcDbArc
 50
-75.13556120274755
 51
-57.907644707903316
  0
ARC
  5
ec57da31
330
1F
  8
Layer
  6
Continuous
100
AcDbCircle
 10
11.673014742477411
 20
11.268580493863691
 30
0.0
 40
0.6840922549111076
100
AcDbArc
 50
-57.90764470790505
 51
-45.02589762025197
  0
ARC
  5
7832815a
330
1F
  8
Layer
  6
Continuous
100
AcDbCircle
 10
11.725481240938983
 20
11.216066544368521
 30
0.0
 40
0.6098598606859499
100
AcDbArc
 50
-45.0258976202537
 51
-38.58174824507062
  0
ARC
  5
d657311d
330
1F
  8
Layer
  6
Continuous
100
AcDbCircle
 10
11.666253341558523
 20
11.263316672436648
 30
0.0
 40
0.6856260712779819
100
AcDbArc
 50
-38.58174824507079
 51
-32.50443478000001
  0
ARC
  5
e0a4edfa
330
1F
  8
Layer
  6
Continuous
100
AcDbCircle
 10
10.770847705887352
 20
11.833850413166802
 30
0.0
 40
1.747351083559051
100
AcDbArc
 50
-32.50443477999817
 51
-30.43862010609213
  0
ARC
  5
612592ae
330
1F
  8
Layer
  6
Continuous
100
AcDbCircle
 10
12.396665906333402
 20
10.878514862169904
 30
0.0
 40
0.1383718112216673
100
AcDbArc
 50
143.03547167796566
 51
149.56137989391743
  0
ARC
  5
348ddf02
330
1F
  8
Layer
  6
Continuous
100
AcDbCircle
 10
12.34910363046651
 20
10.914309463064285
 30
0.0
 40
0.07884514880199003
100
AcDbArc
 50
133.81464645131794
 51
143.03547167798558
  0
ARC
  5
6bddf18c
330
1F
  8
Layer
  6
Continuous
100
AcDbCircle
 10
12.296267246108277
 20
10.969378549110198
 30
0.0
 40
0.0025281274372705095
100
AcDbArc
 50
80.47013507249764
 51
133.81464645107897
  0
ARC
  5
f148d131
330
1F
  8
Layer
  6
Continuous
100
AcDbCircle
 10
12.295413913711212
 20
10.964295513123723
 30
0.0
 40
0.007682293812123785
100
AcDbArc
 50
66.31131684511439
 51
80.47013528029424
  0
ARC
  5
9344b1b1
330
1F
  8
Layer
  6
Continuous
100
AcDbCircle
 10
12.241997475395276
 20
10.842544143751347
 30
0.0
 40
0.14063608964514626
100
AcDbArc
 50
63.01006448401888
 51
66.31131572852752
  0
ARC
  5
5839b0e3
330
1F
  8
Layer
  6
Continuous
100
AcDbCircle
 10
12.124800028470496
 20
10.61243129133595
 30
0.0
 40
0.3988746739280473
100
AcDbArc
 50
58.55758065675928
 51
63.0100640910507
  0
ARC
  5
e22d341e
330
1F
  8
Layer
  6
Continuous
100
AcDbCircle
 10
12.75164907015157
 20
11.637667268202335
 30
0.0
 40
0.8028110292895836
100
AcDbArc
 50
-121.44241961820666
 51
-117.33419373921748
  0
ARC
  5
a46aa8ba
330
1F
  8
Layer
  6
Continuous
100
AcDbCircle
 10
12.573425713621385
 20
11.292870881887469
 30
0.0
 40
0.41467688646177614
100
AcDbArc
 50
-117.33419359438119
 51
-113.53835008852285
  0
ARC
  5
073f53b2
330
1F
  8
Layer
  6
Continuous
100
AcDbCircle
 10
12.884570427383961
 20
12.007146943048635
 30
0.0
 40
1.1937797836777393
100
AcDbArc
 50
-113.53835003866965
 51
-111.30143623170589
  0
ARC
  5
b46cbae8
330
1F
  8
Layer
  6
Continuous
100
AcDbCircle
 10
12.295469779684941
 20
10.4962938178818
 30
0.0
 40
0.42786035486897445
100
AcDbArc
 50
64.70089129236803
 51
68.69856387043488
  0
ARC
  5
453739bc
330
1F
  8
Layer
  6
Continuous
100
AcDbCircle
 10
12.462293112317436
 20
10.849225516682482
 30
0.0
 40
0.03748770171695265
100
AcDbArc
 50
38.779726117451766
 51
64.70089101712493
  0
ARC
  5
d2e6817f
330
1F
  8
Layer
  6
Continuous
100
AcDbCircle
 10
12.467890665790009
 20
10.853722805260858
 30
0.0
 40
0.03030729717155911
100
AcDbArc
 50
0.4670511030060293
 51
38.779725842302604
  0
ARC
  5
3f03d095
330
1F
  8
Layer
  6
Continuous
100
AcDbCircle
 10
12.369825409896753
 20
10.852923401625485
 30
0.0
 40
0.1283758112807353
100
AcDbArc
 50
-11.14049310987303
 51
0.46705074469207947
  0
ARC
  5
8cda98a3
330
1F
  8
Layer
  6
Continuous
100
AcDbCircle
 10
12.164814625723682
 20
10.89329540610782
 30
0.0
 40
0.33732393970781366
100
AcDbArc
 50
-17.8390528572856
 51
-11.140493264764851
  0
ARC
  5
44f99993
330
1F
  8
Layer
  6
Continuous
100
AcDbCircle
 10
12.522685319707708
 20
10.778126567937843
 30
0.0
 40
0.03862192727043932
100
AcDbArc
 50
162.16094717597346
 51
176.82599020457403
  0
ARC
  5
a3c485ef
330
1F
  8
Layer
  6
Continuous
100
AcDbCircle
 10
12.502542411087376
 20
10.779243565773195
 30
0.0
 40
0.0184480716188475
100
AcDbArc
 50
176.8259897517773
 51
-163.14307519741607
  0
ARC
  5
fc912952
330
1F
  8
Layer
  6
Continuous
100
AcDbCircle
 10
12.492775317507098
 20
10.776284114795232
 30
0.0
 40
0.008242462029172629
100
AcDbArc
 50
-163.14307509873234
 51
-97.20346151743986
  0
ARC
  5
a1bb241c
330
1F
  8
Layer
  6
Continuous
100
AcDbCircle
 10
12.49421256731182
 20
10.787655595035115
 30
0.0
 40
0.019704409937240753
100
AcDbArc
 50
-97.2034609349639
 51
-69.25517885407439
  0
ARC
  5
5910428b
330
1F
  8
Layer
  6
Continuous
100
AcDbCircle
 10
12.450810432132503
 20
10.902244830363804
 30
0.0
 40
0.14223782656853076
100
AcDbArc
 50
-69.25517836627861
 51
-58.94178579941926
  0
ARC
  5
5cc96bcd
330
1F
  8
Layer
  6
Continuous
100
AcDbCircle
 10
12.34581516709923
 20
11.076584815861235
 30
0.0
 40
0.3457530255651943
100
AcDbArc
 50
-58.94178579939988
 51
-52.825894935048375
  0
ARC
  5
ac96e781
330
1F
  8
Layer
  6
Continuous
100
AcDbCircle
 10
11.192817199354296
 20
12.597029951226506
 30
0.0
 40
2.253934810217764
100
AcDbArc
 50
-52.82589493505841
 51
-51.415721445880216
  0
ARC
  5
cb05033f
330
1F
  8
Layer
  6
Continuous
100
AcDbCircle
 10
12.66859672104167
 20
10.747312142245523
 30
0.0
 40
0.11236634760074593
100
AcDbArc
 50
124.31632345682262
 51
128.58427855414376
  0
ARC
  5
db8817ef
330
1F
  8
Layer
  6
Continuous
100
AcDbCircle
 10
12.616917838322907
 20
10.82302420722973
 30
0.0
 40
0.020698339532322845
100
AcDbArc
 50
107.91438600742964
 51
124.31632345675898
  0
ARC
  5
1df6fdaa
330
1F
  8
Layer
  6
Continuous
100
AcDbCircle
 10
12.620226679986585
 20
10.81278862388259
 30
0.0
 40
0.03145545808756593
100
AcDbArc
 50
88.14598827752467
 51
107.91438600746064
  0
ARC
  5
ea6ff3b5
330
1F
  8
Layer
  6
Continuous
100
AcDbCircle
 10
12.620519420064609
 20
10.821832215632845
 30
0.0
 40
0.02240712959559744
100
AcDbArc
 50
41.92095949276535
 51
88.14598788915337
  0
ARC
  5
e1780fc6
330
1F
  8
Layer
  6
Continuous
100
AcDbCircle
 10
12.611331331915947
 20
10.813582146725453
 30
0.0
 40
0.03475559511987586
100
AcDbArc
 50
23.366350115531187
 51
41.92095939061591
  0
ARC
  5
4b47e606
330
1F
  8
Layer
  6
Continuous
100
AcDbCircle
 10
12.514703761300373
 20
10.77183502109767
 30
0.0
 40
0.14001579605664705
100
AcDbArc
 50
14.152432556028584
 51
23.36635062852931
  0
ARC
  5
d97d1f02
330
1F
  8
Layer
  6
Continuous
100
AcDbCircle
 10
14.435179529656788
 20
11.256093978803673
 30
0.0
 40
1.8405734887176257
100
AcDbArc
 50
-165.84756725058867
 51
-165.06781109714746
  0
ARC
  5
f2248410
330
1F
  8
Layer
  6
Continuous
100
AcDbCircle
 10
12.669446177629043
 20
10.78520627725959
 30
0.0
 40
0.013130056507314268
100
AcDbArc
 50
-165.06781156782623
 51
-122.35602114930573
  0
ARC
  5
94fce79b
330
1F
  8
Layer
  6
Continuous
100
AcDbCircle
 10
12.669051411812678
 20
10.784583168736217
 30
0.0
 40
0.012392422260772763
100
AcDbArc
 50
-122.35602230568192
 51
-50.501948835613284
  0
ARC
  5
af6c386f
330
1F
  8
Layer
  6
Continuous
100
AcDbCircle
 10
12.642789190402327
 20
10.816443999199839
 30
0.0
 40
0.05368184937278173
100
AcDbArc
 50
-50.50194913584823
 51
-37.388555797416956
  0
ARC
  5
5dd96e31
330
1F
  8
Layer
  6
Continuous
100
AcDbCircle
 10
12.607251764180589
 20
10.843603167414479
 30
0.0
 40
0.09840912383229487
100
AcDbArc
 50
-37.38855579739238
 51
-24.4844751269078
  0
ARC
  5
a17dca51
330
1F
  8
Layer
  6
Continuous
100
AcDbCircle
 10
12.407529599314861
 20
10.9345564537618
 30
0.0
 40
0.3178662800975463
100
AcDbArc
 50
-24.484475126921694
 51
-17.31499548063102
  0
ARC
  5
1d31dfa9
330
1F
  8
Layer
  6
Continuous
100
AcDbCircle
 10
13.570944269711772
 20
10.571859080420836
 30
0.0
 40
0.9007735682264748
100
AcDbArc
 50
160.73236932923183
 51
162.6850045193582
  0
ARC
  5
aa1d01f1
330
1F
  8
Layer
  6
Continuous
100
AcDbCircle
 10
12.833282013066635
 20
10.829716970052953
 30
0.0
 40
0.11934135995481257
100
AcDbArc
 50
144.71429073837487
 51
160.73236932923965
  0
ARC
  5
76a3fd5d
330
1F
  8
Layer
  6
Continuous
100
AcDbCircle
 10
12.77732347193979
 20
10.869316875165454
 30
0.0
 40
0.05078838182866439
100
AcDbArc
 50
125.01932913285495
 51
144.71429073836535
  0
ARC
  5
683d47f0
330
1F
  8
Layer
  6
Continuous
100
AcDbCircle
 10
12.765276226995763
 20
10.886509776329437
 30
0.0
 40
0.029794764675448317
100
AcDbArc
 50
72.15870159537664
 51
125.01932913285077
  0
ARC
  5
3dd1f06c
330
1F
  8
Layer
  6
Continuous
100
AcDbCircle
 10
12.761014341271743
 20
10.873268352967322
 30
0.0
 40
0.04370515512932578
100
AcDbArc
 50
57.95021399447037
 51
72.15870264359098
  0
ARC
  5
41f21670
330
1F
  8
Layer
  6
Continuous
100
AcDbCircle
 10
12.736146200499618
 20
10.83354784848093
 30
0.0
 40
0.09056817788838202
100
AcDbArc
 50
48.093125826949745
 51
57.95021509756371
  0
ARC
  5
909a8934
330
1F
  8
Layer
  6
Continuous
100
AcDbCircle
 10
12.7579516978729
 20
10.857844607787971
 30
0.0
 40
0.057921398131100026
100
AcDbArc
 50
30.512843249851404
 51
48.09312557708373
  0
ARC
  5
a0dc88c2
330
1F
  8
Layer
  6
Continuous
100
AcDbCircle
 10
12.924473732414686
 20
10.955983866556396
 30
0.0
 40
0.13536828627950637
100
AcDbArc
 50
-149.48715713277173
 51
-135.5382711593183
  0
ARC
  5
339c2648
330
1F
  8
Layer
  6
Continuous
100
AcDbCircle
 10
12.859285665293708
 20
10.892009267232618
 30
0.0
 40
0.04403245840453168
100
AcDbArc
 50
-135.53827116420925
 51
-117.04386160150663
  0
ARC
  5
2c6f32f4
330
1F
  8
Layer
  6
Continuous
100
AcDbCircle
 10
12.843868661531154
 20
10.861808870479178
 30
0.0
 40
0.010124524685712665
100
AcDbArc
 50
-117.04386044064326
 51
-77.88422956124481
  0
ARC
  5
2584d149
330
1F
  8
Layer
  6
Continuous
100
AcDbCircle
 10
12.8440794965473
 20
10.86082673167954
 30
0.0
 40
0.009120010860129176
100
AcDbArc
 50
-77.8842291357165
 51
-34.24567573971727
  0
ARC
  5
b8a08eba
330
1F
  8
Layer
  6
Continuous
100
AcDbCircle
 10
12.817721061693732
 20
10.878770639741221
 30
0.0
 40
0.041006542883161655
100
AcDbArc
 50
-34.245675739681715
 51
-14.055387022116825
  0
ARC
  5
103ff15a
330
1F
  8
Layer
  6
Continuous
100
AcDbCircle
 10
12.749285289173848
 20
10.895903879630238
 30
0.0
 40
0.11155441931816171
100
AcDbArc
 50
-14.055387022125482
 51
-4.210625171019892
  0
ARC
  5
37ec1c1c
330
1F
  8
Layer
  6
Continuous
100
AcDbCircle
 10
12.619027778169567
 20
10.90549367940127
 30
0.0
 40
0.24216446270181063
100
AcDbArc
 50
-4.210625170982791
 51
2.466735395056913
  0
ARC
  5
c87aa2ce
330
1F
  8
Layer
  6
Continuous
100
AcDbCircle
 10
12.715820524111244
 20
10.909663440633821
 30
0.0
 40
0.1452819432482653
100
AcDbArc
 50
2.4667353902496814
 51
15.79101727220916
  0
ARC
  5
a36615d9
330
1F
  8
Layer
  6
Continuous
100
AcDbCircle
 10
11.361505853271337
 20
10.526660338671183
 30
0.0
 40
1.5527120849480975
100
AcDbArc
 50
15.79101717878607
 51
17.003324465690618
  0
ARC
  5
bd6bc2aa
330
1F
  8
Layer
  6
Continuous
100
AcDbCircle
 10
13.00550957544457
 20
11.02938702370363
 30
0.0
 40
0.16643955419347556
100
AcDbArc
 50
-171.446989713403
 51
-162.99667591022222
  0
ARC
  5
2a32c1dd
330
1F
  8
Layer
  6
Continuous
100
AcDbCircle
 10
12.870964278575993
 20
11.009151814484722
 30
0.0
 40
0.03038110865779271
100
AcDbArc
 50
133.77533157617336
 51
-171.4469897326702
  0
ARC
  5
6c13096e
330
1F
  8
Layer
  6
Continuous
100
AcDbCircle
 10
12.878809537500725
 20
11.000963800222882
 30
0.0
 40
0.04172093516211634
100
AcDbArc
 50
114.54130143398883
 51
133.77533157621704
  0
ARC
  5
8c658c0f
330
1F
  8
Layer
  6
Continuous
100
AcDbCircle
 10
12.873176511948497
 20
11.013300772097262
 30
0.0
 40
0.028158787400745258
100
AcDbArc
 50
91.075318182646
 51
114.54130143398638
  0
ARC
  5
902c174b
330
1F
  8
Layer
  6
Continuous
100
AcDbCircle
 10
12.873963158295876
 20
10.97139112506315
 30
0.0
 40
0.07007581648201057
100
AcDbArc
 50
76.30860163581418
 51
91.07531844221133
  0
ARC
  5
87bec192
330
1F
  8
Layer
  6
Continuous
100
AcDbCircle
 10
12.936655828829853
 20
11.22873469320202
 30
0.0
 40
0.19479411952645084
100
AcDbArc
 50
-103.69139818797295
 51
-98.39197691529175
  0
ARC
  5
ac7a5f04
330
1F
  8
Layer
  6
Continuous
100
AcDbCircle
 10
12.917297101407435
 20
11.097510503480391
 30
0.0
 40
0.06214967638798679
100
AcDbArc
 50
-98.39197646700696
 51
-88.81408616649135
  0
ARC
  5
4757b6e8
330
1F
  8
Layer
  6
Continuous
100
AcDbCircle
 10
12.918384200482777
 20
11.044996321308187
 30
0.0
 40
0.009624243371065174
100
AcDbArc
 50
-88.81408604991982
 51
-16.2498350280117
  0
ARC
  5
a24dd2f3
330
1F
  8
Layer
  6
Continuous
100
AcDbCircle
 10
12.908920397091318
 20
11.047754738880839
 30
0.0
 40
0.0194818517086537
100
AcDbArc
 50
-16.24983502801159
 51
14.181124384352929
  0
ARC
  5
3390ae6d
330
1F
  8
Layer
  6
Continuous
100
AcDbCircle
 10
12.730717224198871
 20
11.002724864046929
 30
0.0
 40
0.20328625986170315
100
AcDbArc
 50
14.18112469195017
 51
25.525419968303883
  0
ARC
  5
d0245945
330
1F
  8
Layer
  6
Continuous
100
AcDbCircle
 10
12.784707501269043
 20
11.028506312660506
 30
0.0
 40
0.1434562246726077
100
AcDbArc
 50
25.525420603887365
 51
35.32648812060767
  0
ARC
  5
fe507b7c
330
1F
  8
Layer
  6
Continuous
100
AcDbCircle
 10
12.554239022390108
 20
10.865165517997369
 30
0.0
 40
0.4259379673710606
100
AcDbArc
 50
35.32648840630146
 51
41.00989009365531
  0
ARC
  5
083a44ec
330
1F
  8
Layer
  6
Continuous
100
AcDbCircle
 10
11.442631010830185
 20
9.898522496861085
 30
0.0
 40
1.8990540869202588
100
AcDbArc
 50
41.009889928703025
 51
43.01968696336855
  0
ARC
  5
f246f308
330
1F
  8
Layer
  6
Continuous
100
AcDbCircle
 10
12.999970629395289
 20
11.351765931909808
 30
0.0
 40
0.2310217730116625
100
AcDbArc
 50
-145.88636025936796
 51
-136.9803128779867
  0
ARC
  5
6b23a85a
330
1F
  8
Layer
  6
Continuous
100
AcDbCircle
 10
12.885331779438527
 20
11.27410978826698
 30
0.0
 40
0.09255682233863204
100
AcDbArc
 50
-160.14424763867828
 51
-145.88636024126694
  0
ARC
  5
db26b107
330
1F
  8
Layer
  6
Continuous
100
AcDbCircle
 10
12.817699901516088
 20
11.249686448031484
 30
0.0
 40
0.020650143514100786
100
AcDbArc
 50
169.39049061516013
 51
-160.14424710132332
  0
ARC
  5
c4784eee
330
1F
  8
Layer
  6
Continuous
100
AcDbCircle
 10
12.813980798849503
 20
11.250383098277963
 30
0.0
 40
0.01686635623010626
100
AcDbArc
 50
119.21678785275093
 51
169.39049129190002
  0
ARC
  5
131eb083
330
1F
  8
Layer
  6
Continuous
100
AcDbCircle
 10
12.835788410829432
 20
11.211389803716584
 30
0.0
 40
0.0615435199831656
100
AcDbArc
 50
108.51898292078249
 51
119.21678785271314
  0
ARC
  5
5a22739a
330
1F
  8
Layer
  6
Continuous
100
AcDbCircle
 10
12.64792645894073
 20
11.7722324096866
 30
0.0
 40
0.5299262946639322
100
AcDbArc
 50
-71.48101707916885
 51
-69.75317319493946
  0
ARC
  5
ce5e4e65
330
1F
  8
Layer
  6
Continuous
100
AcDbCircle
 10
12.827855354288186
 20
11.28443060317436
 30
0.0
 40
0.009998405608576013
100
AcDbArc
 50
-69.75317319500807
 51
-30.85540570486839
  0
ARC
  5
c59a4ea4
330
1F
  8
Layer
  6
Continuous
100
AcDbCircle
 10
12.830869155466273
 20
11.28263006478776
 30
0.0
 40
0.006487716784048519
100
AcDbArc
 50
-30.855405704923193
 51
14.211021873319494
  0
ARC
  5
e02db1bb
330
1F
  8
Layer
  6
Continuous
100
AcDbCircle
 10
12.811638146484738
 20
11.277759934942546
 30
0.0
 40
0.02632580820326399
100
AcDbArc
 50
14.211021823747252
 51
36.14461332027336
  0
ARC
  5
157b8db2
330
1F
  8
Layer
  6
Continuous
100
AcDbCircle
 10
12.76361869190783
 20
11.242686241277053
 30
0.0
 40
0.0857903523048095
100
AcDbArc
 50
36.14461327429987
 51
44.661601313489015
  0
ARC
  5
2e16a293
330
1F
  8
Layer
  6
Continuous
100
AcDbCircle
 10
12.72024795371067
 20
11.199824813084295
 30
0.0
 40
0.1467667654371792
100
AcDbArc
 50
44.66160072298885
 51
53.160457670049375
  0
ARC
  5
671fa2c5
330
1F
  8
Layer
  6
Continuous
100
AcDbCircle
 10
12.758303496469033
 20
11.250621581437162
 30
0.0
 40
0.08329601619212652
100
AcDbArc
 50
53.16045767660957
 51
73.89927701246603
  0
ARC
  5
348f7aeb
330
1F
  8
Layer
  6
Continuous
100
AcDbCircle
 10
12.727618890307111
 20
11.144317303140829
 30
0.0
 40
0.19394024170532934
100
AcDbArc
 50
73.89927709872757
 51
83.16178167010719
  0
ARC
  5
cedbf4c0
330
1F
  8
Layer
  6
Continuous
100
AcDbCircle
 10
12.590847282534499
 20
10.003787418817975
 30
0.0
 40
1.3426416344642151
100
AcDbArc
 50
83.161781671824
 51
84.46996950555359
  0
ARC
  5
aa94dd41
330
1F
  8
Layer
  6
Continuous
100
AcDbCircle
 10
12.726957634502307
 20
11.409623730477401
 30
0.0
 40
0.06976827880210684
100
AcDbArc
 50
-113.86045007900135
 51
-95.53003041543259
  0
ARC
  5
ae4f8ac6
330
1F
  8
Layer
  6
Continuous
100
AcDbCircle
 10
12.71451358032946
 20
11.381489712719317
 30
0.0
 40
0.03900503060772666
100
AcDbArc
 50
-138.85544559954147
 51
-113.86044965247244
  0
ARC
  5
8d2c3445
330
1F
  8
Layer
  6
Continuous
100
AcDbCircle
 10
12.71694922333218
 20
11.38361779821016
 30
0.0
 40
0.04223939371242851
100
AcDbArc
 50
-162.8595820716708
 51
-138.8554445202925
  0
ARC
  5
d17dd8ea
330
1F
  8
Layer
  6
Continuous
100
AcDbCircle
 10
12.802582144489651
 20
11.410028066319635
 30
0.0
 40
0.13185244771448681
100
AcDbArc
 50
-166.6168078380993
 51
-162.85958101838742
  0
ARC
  5
3e431370
330
1F
  8
Layer
  6
Continuous
100
AcDbCircle
 10
12.45681738658199
 20
11.327762461431469
 30
0.0
 40
0.22356406506813534
100
AcDbArc
 50
13.38319228452564
 51
22.252363652697554
  0
ARC
  5
ba6d04dc
330
1F
  8
Layer
  6
Continuous
100
AcDbCircle
 10
12.53743077480606
 20
11.360746152957663
 30
0.0
 40
0.13646387983492425
100
AcDbArc
 50
22.252363107310206
 51
32.8228822891803
  0
ARC
  5
dd3e10ce
330
1F
  8
Layer
  6
Continuous
100
AcDbCircle
 10
12.637323255010129
 20
11.425178940969209
 30
0.0
 40
0.017593817278109904
100
AcDbArc
 50
32.822882901373134
 51
62.552687907944886
  0
ARC
  5
8bb3c933
330
1F
  8
Layer
  6
Continuous
100
AcDbCircle
 10
12.641840069864623
 20
11.43387517676831
 30
0.0
 40
0.007794524777967581
100
AcDbArc
 50
62.5526885998566
 51
140.22530897623258
  0
ARC
  5
3c113fe5
330
1F
  8
Layer
  6
Continuous
100
AcDbCircle
 10
12.661075786838204
 20
11.417862971391445
 30
0.0
 40
0.03282257960687154
100
AcDbArc
 50
140.22530884984462
 51
154.6123159950454
  0
ARC
  5
09dc2dd1
330
1F
  8
Layer
  6
Continuous
100
AcDbCircle
 10
12.834449152220241
 20
11.335584905052562
 30
0.0
 40
0.22472881719272908
100
AcDbArc
 50
154.61231480075736
 51
157.51207041654416
  0
ARC
  5
0ebdf3b3
330
1F
  8
Layer
  6
Continuous
100
AcDbCircle
 10
12.563013494170642
 20
11.447950250566656
 30
0.0
 40
0.06904539429173985
100
AcDbArc
 50
-31.935743621996053
 51
-22.48793171654058
  0
ARC
  5
45736b78
330
1F
  8
Layer
  6
Continuous
100
AcDbCircle
 10
12.562674653706082
 20
11.448161454627892
 30
0.0
 40
0.06944466865343199
100
AcDbArc
 50
-63.365460617864464
 51
-31.935744358456553
  0
ARC
  5
b99912f1
330
1F
  8
Layer
  6
Continuous
100
AcDbCircle
 10
12.547812450800672
 20
11.477795953792924
 30
0.0
 40
0.1025971740785718
100
AcDbArc
 50
-76.38680232561825
 51
-63.365460510130895
  0
ARC
  5
ea3689df
330
1F
  8
Layer
  6
Continuous
100
AcDbCircle
 10
12.529773003039692
 20
11.55228701536179
 30
0.0
 40
0.17924141671412436
100
AcDbArc
 50
-84.60812157901708
 51
-76.38680244826845
  0
ARC
  5
526d2231
330
1F
  8
Layer
  6
Continuous
100
AcDbCircle
 10
12.696883461765905
 20
9.781764418453253
 30
0.0
 40
1.5991500395123823
100
AcDbArc
 50
95.39187860953258
 51
97.10153694106455
  0
ARC
  5
6ac63989
330
1F
  8
Layer
  6
Continuous
100
AcDbCircle
 10
12.543283548676106
 20
11.014668565683605
 30
0.0
 40
0.3567147013321626
100
AcDbArc
 50
97.10153722930427
 51
105.29515935675471
  0
ARC
  5
86a29b89
330
1F
  8
Layer
  6
Continuous
100
AcDbCircle
 10
12.520088950212035
 20
11.099481890219671
 30
0.0
 40
0.2687869502135901
100
AcDbArc
 50
105.29515936017135
 51
123.6510128709389
  0
ARC
  5
e665e77f
330
1F
  8
Layer
  6
Continuous
100
AcDbCircle
 10
12.522116987578137
 20
11.096435336101642
 30
0.0
 40
0.2724467900396467
100
AcDbArc
 50
123.6510127837115
 51
129.55715465645557
  0
ARC
  5
8b849c1d
330
1F
  8
Layer
  6
Continuous
100
AcDbCircle
 10
12.69649846146684
 20
10.885323116200311
 30
0.0
 40
0.5462665625676083
100
AcDbArc
 50
129.5571548383314
 51
133.72725013752455
  0
ARC
  5
747fbd43
330
1F
  8
Layer
  6
Continuous
100
AcDbCircle
 10
-20.35580526527224
 20
45.439666036428974
 30
0.0
 40
47.27064881571006
100
AcDbArc
 50
-46.312203382000575
 51
-46.27274986723434
  0
ARC
  5
d6511253
330
1F
  8
Layer
  6
Continuous
100
AcDbCircle
 10
12.273030698862458
 20
11.280976684185735
 30
0.0
 40
0.032348733705986954
100
AcDbArc
 50
-60.787000954420854
 51
-46.312203218239695
  0
ARC
  5
7ac8d974
330
1F
  8
Layer
  6
Continuous
100
AcDbCircle
 10
12.286855113871809
 20
11.256253979019142
 30
0.0
 40
0.00402336343294313
100
AcDbArc
 50
-94.82296769835627
 51
-60.78700381231603
  0
ARC
  5
0d69937f
330
1F
  8
Layer
  6
Continuous
100
AcDbCircle
 10
12.286602332752777
 20
11.253258091311366
 30
0.0
 40
0.0010168303046144548
100
AcDbArc
 50
-166.02988803498235
 51
-94.82297034149315
  0
ARC
  5
2ffdd02c
330
1F
  8
Layer
  6
Continuous
100
AcDbCircle
 10
12.291184492110931
 20
11.254398013331084
 30
0.0
 40
0.00573865268528043
100
AcDbArc
 50
158.02463168784726
 51
-166.02988904065987
  0
ARC
  5
22d890f4
330
1F
  8
Layer
  6
Continuous
100
AcDbCircle
 10
12.529716303125733
 20
11.158144173197858
 30
0.0
 40
0.262958843584816
100
AcDbArc
 50
152.79934557745605
 51
158.02463226193234
  0
ARC
  5
0695e463
330
1F
  8
Layer
  6
Continuous
100
AcDbCircle
 10
12.86905620542925
 20
10.983742252594606
 30
0.0
 40
0.6444920652123204
100
AcDbArc
 50
142.43754219551084
 51
152.7993455774671
  0
ARC
  5
3e9c6b65
330
1F
  8
Layer
  6
Continuous
100
AcDbCircle
 10
12.626235204424736
 20
11.170486261546749
 30
0.0
 40
0.33816648121981274
100
AcDbArc
 50
134.05620350415916
 51
142.43754219551602
  0
ARC
  5
bd409dd6
330
1F
  8
Layer
  6
Continuous
100
AcDbCircle
 10
12.525175186413444
 20
11.27493174562247
 30
0.0
 40
0.19283243020541846
100
AcDbArc
 50
128.53985997221548
 51
134.05620350417786
  0
ARC
  5
7269f7d5
330
1F
  8
Layer
  6
Continuous
100
AcDbCircle
 10
12.490595495450334
 20
11.318342351639998
 30
0.0
 40
0.1373325586567978
100
AcDbArc
 50
122.00219803691694
 51
128.53985997220582
  0
ARC
  5
1b81e868
330
1F
  8
Layer
  6
Continuous
100
AcDbCircle
 10
11.818384531672292
 20
12.39401294046364
 30
0.0
 40
1.1311053765546961
100
AcDbArc
 50
-57.99780196308459
 51
-56.95782913099684
  0
ARC
  5
f409f48b
330
1F
  8
Layer
  6
Continuous
100
AcDbCircle
 10
12.387149263321447
 20
11.519601713683302
 30
0.0
 40
0.08799065923573018
100
AcDbArc
 50
-56.95782913101153
 51
-43.54371421651416
  0
ARC
  5
c59a73c2
330
1F
  8
Layer
  6
Continuous
100
AcDbCircle
 10
12.426044252013368
 20
11.482635307990467
 30
0.0
 40
0.034331221154513945
100
AcDbArc
 50
-43.54371421647686
 51
-24.492793973685796
  0
ARC
  5
63fa10be
330
1F
  8
Layer
  6
Continuous
100
AcDbCircle
 10
12.44010556891881
 20
11.476229332374283
 30
0.0
 40
0.018879452430176386
100
AcDbArc
 50
-24.492794091759844
 51
29.055901811855104
  0
ARC
  5
f1673c9f
330
1F
  8
Layer
  6
Continuous
100
AcDbCircle
 10
12.424280388692091
 20
11.467437096631205
 30
0.0
 40
0.036983036013819304
100
AcDbArc
 50
29.055901659810687
 51
49.832667700960165
  0
ARC
  5
63c3cc0b
330
1F
  8
Layer
  6
Continuous
100
AcDbCircle
 10
12.814706316958594
 20
11.929978467438511
 30
0.0
 40
0.5683077413577367
100
AcDbArc
 50
-132.66159088529344
 51
-130.16733247424267
  0
ARC
  5
ff69e2f5
330
1F
  8
Layer
  6
Continuous
100
AcDbCircle
 10
12.494975648240548
 20
11.583023272509736
 30
0.0
 40
0.09649675398360398
100
AcDbArc
 50
-145.5808609063448
 51
-132.66159070858902
  0
ARC
  5
8496758a
330
1F
  8
Layer
  6
Continuous
100
AcDbCircle
 10
12.449586152110104
 20
11.551922160450431
 30
0.0
 40
0.04147416289320781
100
AcDbArc
 50
171.29846274632055
 51
-145.5808609047099
  0
ARC
  5
11dee93d
330
1F
  8
Layer
  6
Continuous
100
AcDbCircle
 10
12.466773958881836
 20
11.5492915841819
 30
0.0
 40
0.05886210794508034
100
AcDbArc
 50
148.96350910956753
 51
171.29846246528663
  0
ARC
  5
0fe24b69
330
1F
  8
Layer
  6
Continuous
100
AcDbCircle
 10
12.58305957599095
 20
11.479319298602768
 30
0.0
 40
0.1945767552592696
100
AcDbArc
 50
129.22356725001367
 51
148.9635091095443
  0
ARC
  5
a198ab9f
330
1F
  8
Layer
  6
Continuous
100
AcDbCircle
 10
12.985673169811331
 20
10.986080623565934
 30
0.0
 40
0.8312729909015554
100
AcDbArc
 50
127.49855758018063
 51
129.22356725002618
  0
ARC
  5
292c743c
330
1F
  8
Layer
  6
Continuous
100
AcDbCircle
 10
12.454048926108111
 20
11.678942942293174
 30
0.0
 40
0.04204397859183066
100
AcDbArc
 50
-52.50144241985841
 51
-34.037946421358754
  0
ARC
  5
419a3d48
330
1F
  8
Layer
  6
Continuous
100
AcDbCircle
 10
12.476254788629877
 20
11.663943491616548
 30
0.0
 40
0.015246891978989308
100
AcDbArc
 50
-34.03794642132747
 51
-2.5353232885963193
  0
ARC
  5
2ba037a5
330
1F
  8
Layer
  6
Continuous
100
AcDbCircle
 10
12.479662396486763
 20
11.663792607510011
 30
0.0
 40
0.011835945289298563
100
AcDbArc
 50
-2.535323983373747
 51
33.354830663001536
  0
ARC
  5
88810993
330
1F
  8
Layer
  6
Continuous
100
AcDbCircle
 10
12.468539981348052
 20
11.6564713006496
 30
0.0
 40
0.02515171235928459
100
AcDbArc
 50
33.354829761197244
 51
57.11751115332039
  0
ARC
  5
5e0aca68
330
1F
  8
Layer
  6
Continuous
100
AcDbCircle
 10
12.395065188608706
 20
11.54282041512202
 30
0.0
 40
0.16048488992226279
100
AcDbArc
 50
57.11751122324833
 51
66.46784581582362
  0
ARC
  5
70eaee68
330
1F
  8
Layer
  6
Continuous
100
AcDbCircle
 10
12.339520615202773
 20
11.41527244078638
 30
0.0
 40
0.2996024135919
100
AcDbArc
 50
66.46784536396007
 51
69.75517228193554
  0
ARC
  5
4a2b4724
330
1F
  8
Layer
  6
Continuous
100
AcDbCircle
 10
12.471431106201537
 20
11.7729308968282
 30
0.0
 40
0.08160612358133024
100
AcDbArc
 50
-122.33442560548782
 51
-110.2448280689422
  0
ARC
  5
82e6b13d
330
1F
  8
Layer
  6
Continuous
100
AcDbCircle
 10
12.458927074737511
 20
11.753177761926182
 30
0.0
 40
0.0582279897526708
100
AcDbArc
 50
-143.42738145172797
 51
-122.334425611048
  0
ARC
  5
3f862018
330
1F
  8
Layer
  6
Continuous
100
AcDbCircle
 10
12.436918944300931
 20
11.736849394594378
 30
0.0
 40
0.030824096141801722
100
AcDbArc
 50
155.39333834852656
 51
-143.42738152889197
  0
ARC
  5
5893ba90
330
1F
  8
Layer
  6
Continuous
100
AcDbCircle
 10
12.447031161130786
 20
11.732218237834369
 30
0.0
 40
0.04194635050635304
100
AcDbArc
 50
129.74853426739708
 51
155.39333813010128
  0
ARC
  5
6384cdcb
330
1F
  8
Layer
  6
Continuous
100
AcDbCircle
 10
12.484118311570857
 20
11.687623465880456
 30
0.0
 40
0.09994764715897936
100
AcDbArc
 50
113.216107170981
 51
129.74853426740276
  0
ARC
  5
bae3c850
330
1F
  8
Layer
  6
Continuous
100
AcDbCircle
 10
12.127974654807613
 20
12.517924151504266
 30
0.0
 40
0.8035110031400043
100
AcDbArc
 50
-66.78389282902863
 51
-65.80760102556523
  0
ARC
  5
a5a19968
330
1F
  8
Layer
  6
Continuous
100
AcDbCircle
 10
12.433800734852301
 20
11.837188745119443
 30
0.0
 40
0.05723338405887001
100
AcDbArc
 50
-65.80760102555418
 51
-52.20093342171815
  0
ARC
  5
ecd5dae5
330
1F
  8
Layer
  6
Continuous
100
AcDbCircle
 10
12.444676360306708
 20
11.823167501607472
 30
0.0
 40
0.039488680661896904
100
AcDbArc
 50
-52.200933421746214
 51
-30.55611019888615
  0
ARC
  5
052aab3a
330
1F
  8
Layer
  6
Continuous
100
AcDbCircle
 10
12.471092547818358
 20
11.807572312229826
 30
0.0
 40
0.008812551597503281
100
AcDbArc
 50
-30.55611019876229
 51
16.283766989276778
  0
ARC
  5
9f5d986a
330
1F
  8
Layer
  6
Continuous
100
AcDbCircle
 10
12.471450353911209
 20
11.807676831891438
 30
0.0
 40
0.008439792211647142
100
AcDbArc
 50
16.283767832346207
 51
62.305321820522096
  0
ARC
  5
55c8bf7e
330
1F
  8
Layer
  6
Continuous
100
AcDbCircle
 10
12.455429591053758
 20
11.777154885252475
 30
0.0
 40
0.042910853540919364
100
AcDbArc
 50
62.30532317691462
 51
82.27196909288531
  0
ARC
  5
5b027f33
330
1F
  8
Layer
  6
Continuous
100
AcDbCircle
 10
12.440038106296372
 20
11.663734937787254
 30
0.0
 40
0.1573703760196109
100
AcDbArc
 50
82.27196927984654
 51
86.58836289201383
  0
ARC
  5
03e4df5c
330
1F
  8
Layer
  6
Continuous
100
AcDbCircle
 10
12.46294375814477
 20
12.047962727292049
 30
0.0
 40
0.22753956554379015
100
AcDbArc
 50
-105.36635877314605
 51
-93.41163702659253
  0
ARC
  5
c395c343
330
1F
  8
Layer
  6
Continuous
100
AcDbCircle
 10
12.483524499035928
 20
12.122852357306472
 30
0.0
 40
0.3052056686990672
100
AcDbArc
 50
-118.07424525422911
 51
-105.36635877042961
  0
ARC
  5
d00fb9e2
330
1F
  8
Layer
  6
Continuous
100
AcDbCircle
 10
12.661360927690065
 20
12.456271017078441
 30
0.0
 40
0.6830863351012981
100
AcDbArc
 50
-126.55897848464627
 51
-118.07424530330147
  0
ARC
  5
128fa76d
330
1F
  8
Layer
  6
Continuous
100
AcDbCircle
 10
13.054870947737466
 20
12.986926021520778
 30
0.0
 40
1.3437260777881905
100
AcDbArc
 50
-130.26911263606553
 51
-126.55897844235261
  0
ARC
  5
2903dc22
330
1F
  8
Layer
  6
Continuous
100
AcDbCircle
 10
8.129954653434986
 20
7.173313556434962
 30
0.0
 40
6.275518661691389
100
AcDbArc
 50
49.73088746351311
 51
50.52517607715705
  0
ARC
  5
44a5a493
330
1F
  8
Layer
  6
Continuous
100
AcDbCircle
 10
10.986670397554342
 20
10.641891021424705
 30
0.0
 40
1.781983920161726
100
AcDbArc
 50
50.525176033101275
 51
52.586682054960775
  0
ARC
  5
bc2062ca
330
1F
  8
Layer
  6
Continuous
100
AcDbCircle
 10
12.191497727549237
 20
12.216980839642796
 30
0.0
 40
0.20107352493585168
100
AcDbArc
 50
-137.26476913832815
 51
-127.41331776639093
  0
ARC
  5
9cd6774d
330
1F
  8
Layer
  6
Continuous
100
AcDbCircle
 10
12.137185298929689
 20
12.166800904739478
 30
0.0
 40
0.12712850637844814
100
AcDbArc
 50
-153.80897345547078
 51
-137.26476891156636
  0
ARC
  5
aa7d24a7
330
1F
  8
Layer
  6
Continuous
100
AcDbCircle
 10
12.059917992822918
 20
12.128795706764922
 30
0.0
 40
0.041020250873632855
100
AcDbArc
 50
176.84730811285553
 51
-153.8089735368391
  0
ARC
  5
57da8ce6
330
1F
  8
Layer
  6
Continuous
100
AcDbCircle
 10
12.050694637620406
 20
12.129303733176144
 30
0.0
 40
0.03178291510912734
100
AcDbArc
 50
132.67150684227067
 51
176.84730777723365
  0
ARC
  5
9ea7f709
330
1F
  8
Layer
  6
Continuous
100
AcDbCircle
 10
12.070993655259333
 20
12.107283936897552
 30
0.0
 40
0.0617315635804054
100
AcDbArc
 50
110.82140031923824
 51
132.67150684227286
  0
ARC
  5
6d1757bd
330
1F
  8
Layer
  6
Continuous
100
AcDbCircle
 10
12.086772594183932
 20
12.065792277692148
 30
0.0
 40
0.10612224612982811
100
AcDbArc
 50
92.9377879700076
 51
110.82140031923728
  0
ARC
  5
65df1fe3
330
1F
  8
Layer
  6
Continuous
100
AcDbCircle
 10
12.095503175512235
 20
11.895668693965892
 30
0.0
 40
0.27646970513698305
100
AcDbArc
 50
78.8287676877629
 51
92.93778796614053
  0
ARC
  5
d2c13b82
330
1F
  8
Layer
  6
Continuous
100
AcDbCircle
 10
12.074329906740275
 20
11.788453371525275
 30
0.0
 40
0.38575571831586725
100
AcDbArc
 50
64.69585781520041
 51
78.828767677448
  0
ARC
  5
dd304c70
330
1F
  8
Layer
  6
Continuous
100
AcDbCircle
 10
12.009975288757884
 20
11.652335596124395
 30
0.0
 40
0.5363198761879985
100
AcDbArc
 50
43.46654523643783
 51
64.6958577678175
  0
ARC
  5
a139fe4e
330
1F
  8
Layer
  6
Continuous
100
AcDbCircle
 10
11.974053631832987
 20
11.618287057530985
 30
0.0
 40
0.5858140012593319
100
AcDbArc
 50
31.346933077952148
 51
43.46654521337384
  0
ARC
  5
b0d67396
330
1F
  8
Layer
  6
Continuous
100
AcDbCircle
 10
11.674184722336705
 20
11.435627295042266
 30
0.0
 40
0.93693499424455
100
AcDbArc
 50
24.542655120316745
 51
31.346933160744005
  0
ARC
  5
4ef58eb0
330
1F
  8
Layer
  6
Continuous
100
AcDbCircle
 10
11.326925556030831
 20
11.277059852975526
 30
0.0
 40
1.318684339060019
100
AcDbArc
 50
20.750261248559244
 51
24.542655103007412
  0
ARC
  5
42c12b9c
330
1F
  8
Layer
  6
Continuous
100
AcDbCircle
 10
-32.79800583879853
 20
-5.440611269623297
 30
0.0
 40
48.50438236676513
100
AcDbArc
 50
20.637288509329398
 51
20.750261242759215
  0
ARC
  5
6166aa7c
330
1F
  8
Layer
  6
Continuous
100
AcDbCircle
 10
14.613265594727068
 20
12.415337644606124
 30
0.0
 40
2.157867588907119
100
AcDbArc
 50
-159.36271151993446
 51
-156.54289790244778
  0
ARC
  5
33c8486b
330
1F
  8
Layer
  6
Continuous
100
AcDbCircle
 10
13.131792700863356
 20
11.772493367423689
 30
0.0
 40
0.5429339370318722
100
AcDbArc
 50
-156.54289788818477
 51
-147.7275848245529
  0
ARC
  5
ca0c245a
330
1F
  8
Layer
  6
Continuous
100
AcDbCircle
 10
12.99431725483739
 20
11.68567760881188
 30
0.0
 40
0.38034096607869194
100
AcDbArc
 50
-147.72758474076537
 51
-137.9087628091788
  0
ARC
  5
f43b0101
330
1F
  8
Layer
  6
Continuous
100
AcDbCircle
 10
12.915588205072483
 20
11.614562321831098
 30
0.0
 40
0.27424833052256925
100
AcDbArc
 50
-137.90876281128652
 51
-115.23889582990581
  0
ARC
  5
c0f3badc
330
1F
  8
Layer
  6
Continuous
100
AcDbCircle
 10
13.291659962778994
 20
12.412349264629611
 30
0.0
 40
1.1562313082745566
100
AcDbArc
 50
-115.23889570782032
 51
-110.72069225340078
  0
ARC
  5
f8c0cf2a
330
1F
  8
Layer
  6
Continuous
100
AcDbCircle
 10
12.962586292217619
 20
11.542431334622473
 30
0.0
 40
0.22615244838973872
100
AcDbArc
 50
-110.72069216417478
 51
-102.50024886433972
  0
ARC
  5
3c6a3b21
330
1F
  8
Layer
  6
Continuous
100
AcDbCircle
 10
12.932554593244298
 20
11.406969877760115
 30
0.0
 40
0.08740191960337239
100
AcDbArc
 50
-102.5002490579323
 51
-88.66920259597185
  0
ARC
  5
d30ad282
330
1F
  8
Layer
  6
Continuous
100
AcDbCircle
 10
12.934300523281228
 20
11.331814614744946
 30
0.0
 40
0.01222637949508152
100
AcDbArc
 50
-88.66920291346486
 51
-51.11005919633219
  0
ARC
  5
f1800b81
330
1F
  8
Layer
  6
Continuous
100
AcDbCircle
 10
12.936233712947104
 20
11.329417925651065
 30
0.0
 40
0.009147200887567077
100
AcDbArc
 50
-51.1100591963605
 51
9.629250781402767
  0
ARC
  5
7f13ffb1
330
1F
  8
Layer
  6
Continuous
100
AcDbCircle
 10
12.896093978507256
 20
11.322607717291795
 30
0.0
 40
0.04986055519298102
100
AcDbArc
 50
9.629250973951875
 51
24.835407428693046
  0
ARC
  5
e630ae8b
330
1F
  8
Layer
  6
Continuous
100
AcDbCircle
 10
12.839275122852975
 20
11.296311097594886
 30
0.0
 40
0.1124696165606934
100
AcDbArc
 50
24.8354078810631
 51
35.99694224806308
  0
ARC
  5
792647f1
330
1F
  8
Layer
  6
Continuous
100
AcDbCircle
 10
12.40133156722142
 20
10.978162181486486
 30
0.0
 40
0.6537766373355569
100
AcDbArc
 50
35.996942679491276
 51
40.62030267664862
  0
ARC
  5
59f28e1c
330
1F
  8
Layer
  6
Continuous
100
AcDbCircle
 10
11.61840574244704
 20
10.306632207811965
 30
0.0
 40
1.6852442096042866
100
AcDbArc
 50
40.620302717312825
 51
41.88430679603797
  0
ARC
  5
2b4ee642
330
1F
  8
Layer
  6
Continuous
100
AcDbCircle
 10
13.336040784852406
 20
11.846928994888575
 30
0.0
 40
0.6218718107070932
100
AcDbArc
 50
-141.54152754084868
 51
-138.11569337473162
  0
ARC
  5
a9506524
330
1F
  8
Layer
  6
Continuous
100
AcDbCircle
 10
13.354178292679787
 20
11.861334767232057
 30
0.0
 40
0.6450341824984377
100
AcDbArc
 50
-151.45862776332248
 51
-141.5415276514578
  0
ARC
  5
df6fdb32
330
1F
  8
Layer
  6
Continuous
100
AcDbCircle
 10
13.115773660495734
 20
11.731668628698978
 30
0.0
 40
0.3736487073364574
100
AcDbArc
 50
-164.50050339805048
 51
-151.45862780335435
  0
ARC
  5
7cb99be2
330
1F
  8
Layer
  6
Continuous
100
AcDbCircle
 10
13.037157799818738
 20
11.709867264556411
 30
0.0
 40
0.29206590873000254
100
AcDbArc
 50
-177.2967072933555
 51
-164.5005034472161
  0
ARC
  5
08144c02
330
1F
  8
Layer
  6
Continuous
100
AcDbCircle
 10
12.968843357411625
 20
11.7066417019163
 30
0.0
 40
0.2236753589753751
100
AcDbArc
 50
162.4715907703264
 51
-177.2967074575534
  0
ARC
  5
05c748e8
330
1F
  8
Layer
  6
Continuous
100
AcDbCircle
 10
12.88486781225605
 20
11.733164874111427
 30
0.0
 40
0.13561077558643062
100
AcDbArc
 50
133.67506540286928
 51
162.47159077031623
  0
ARC
  5
c9965add
330
1F
  8
Layer
  6
Continuous
100
AcDbCircle
 10
12.853005631411897
 20
11.76653580510449
 30
0.0
 40
0.08947166415708695
100
AcDbArc
 50
98.02229636954434
 51
133.67506540288377
  0
ARC
  5
53a87084
330
1F
  8
Layer
  6
Continuous
100
AcDbCircle
 10
12.853200671254074
 20
11.76515193078906
 30
0.0
 40
0.09086921510819632
100
AcDbArc
 50
65.42099869444944
 51
98.02229624216986
  0
ARC
  5
0dfc7456
330
1F
  8
Layer
  6
Continuous
100
AcDbCircle
 10
12.798735992937404
 20
11.646075474423034
 30
0.0
 40
0.22181043720738242
100
AcDbArc
 50
55.94332857647524
 51
65.4209986744785
  0
ARC
  5
bca01af4
330
1F
  8
Layer
  6
Continuous
100
AcDbCircle
 10
12.767355354066652
 20
11.599650878464502
 30
0.0
 40
0.27784602952021076
100
AcDbArc
 50
45.98654708571414
 51
55.94332876031639
  0
ARC
  5
07b247c0
330
1F
  8
Layer
  6
Continuous
100
AcDbCircle
 10
12.561949864334679
 20
11.387047186737584
 30
0.0
 40
0.5734669776073615
100
AcDbArc
 50
39.06051150470767
 51
45.9865472035176
  0
ARC
  5
e5da94d6
330
1F
  8
Layer
  6
Continuous
100
AcDbCircle
 10
12.375122209291273
 20
11.235430151614342
 30
0.0
 40
0.8140751612349783
100
AcDbArc
 50
34.66801809351123
 51
39.06051159862343
  0
ARC
  5
e84ae87e
330
1F
  8
Layer
  6
Continuous
100
AcDbCircle
 10
6.048481049626128
 20
6.859878781859905
 30
0.0
 40
8.50639848728733
100
AcDbArc
 50
33.93995818951736
 51
34.668018059810414
  0
ARC
  5
36854a34
330
1F
  8
Layer
  6
Continuous
100
AcDbCircle
 10
15.187550761359892
 20
13.010334687183038
 30
0.0
 40
2.509531025888296
100
AcDbArc
 50
-146.06004186326516
 51
-143.5421603310684
  0
ARC
  5
00cdc944
330
1F
  8
Layer
  6
Continuous
100
AcDbCircle
 10
13.668752074903951
 20
11.888211351297468
 30
0.0
 40
0.6211692409224892
100
AcDbArc
 50
-143.54216036714172
 51
-135.58822090149056
  0
ARC
  5
44cab48f
330
1F
  8
Layer
  6
Continuous
100
AcDbCircle
 10
13.52761552555862
 20
11.749943379269801
 30
0.0
 40
0.4235899969474428
100
AcDbArc
 50
-135.5882208686561
 51
-124.7199216146675
  0
ARC
  5
f358353c
330
1F
  8
Layer
  6
Continuous
100
AcDbCircle
 10
13.423070684593696
 20
11.59907356347923
 30
0.0
 40
0.24003802858681136
100
AcDbArc
 50
-124.71992147670464
 51
-104.16198830867333
  0
ARC
  5
ba41150c
330
1F
  8
Layer
  6
Continuous
100
AcDbCircle
 10
13.422149521728361
 20
11.595422983492906
 30
0.0
 40
0.23627302191204683
100
AcDbArc
 50
-104.1619881539665
 51
-93.54692513176765
  0
ARC
  5
0d8a90b0
330
1F
  8
Layer
  6
Continuous
100
AcDbCircle
 10
13.418562006228793
 20
11.537545559847567
 30
0.0
 40
0.17828451929918687
100
AcDbArc
 50
-93.54692532167284
 51
-84.33115830797063
  0
ARC
  5
e3181b39
330
1F
  8
Layer
  6
Continuous
100
AcDbCircle
 10
13.429580047979607
 20
11.426548279072216
 30
0.0
 40
0.06674173117039521
100
AcDbArc
 50
-84.33115857477743
 51
-68.98413795315147
  0
ARC
  5
a254b7a1
330
1F
  8
Layer
  6
Continuous
100
AcDbCircle
 10
13.450374707979027
 20
11.37242113141064
 30
0.0
 40
0.008757543683895709
100
AcDbArc
 50
-68.98413795313205
 51
10.831054668088873
  0
ARC
  5
b3d95a62
330
1F
  8
Layer
  6
Continuous
100
AcDbCircle
 10
13.442711205623024
 20
11.37095493459979
 30
0.0
 40
0.016560043376210885
100
AcDbArc
 50
10.831055655909193
 51
40.82819746209248
  0
ARC
  5
d42f2ba8
330
1F
  8
Layer
  6
Continuous
100
AcDbCircle
 10
13.345382076998082
 20
11.286859055663697
 30
0.0
 40
0.1451877081024477
100
AcDbArc
 50
40.82819900627964
 51
50.85653214979686
  0
ARC
  5
66c2fabc
330
1F
  8
Layer
  6
Continuous
100
AcDbCircle
 10
13.213421050778773
 20
11.124732512288514
 30
0.0
 40
0.3542301164975828
100
AcDbArc
 50
50.856532129093395
 51
55.61059411224399
  0
ARC
  5
be001bbd
330
1F
  8
Layer
  6
Continuous
100
AcDbCircle
 10
13.861700977952294
 20
12.071897116037643
 30
0.0
 40
0.7935449706041346
100
AcDbArc
 50
-126.5110813509881
 51
-124.38940565035793
  0
ARC
  5
268514ff
330
1F
  8
Layer
  6
Continuous
100
AcDbCircle
 10
13.511306575500896
 20
11.598557745327305
 30
0.0
 40
0.20462528411561864
100
AcDbArc
 50
-137.98523833221486
 51
-126.51108131411625
  0
ARC
  5
ca781866
330
1F
  8
Layer
  6
Continuous
100
AcDbCircle
 10
13.625254770581298
 20
11.701210330241903
 30
0.0
 40
0.35799328714014206
100
AcDbArc
 50
-152.926254820951
 51
-137.9852385327934
  0
ARC
  5
a2fa3d37
330
1F
  8
Layer
  6
Continuous
100
AcDbCircle
 10
13.612790139674615
 20
11.694839061586661
 30
0.0
 40
0.3439947126442472
100
AcDbArc
 50
-175.06433324050028
 51
-152.92625489056857
  0
ARC
  5
78cf581c
330
1F
  8
Layer
  6
Continuous
100
AcDbCircle
 10
13.502344420990063
 20
11.68530126152326
 30
0.0
 40
0.23313792933444508
100
AcDbArc
 50
164.47353665195448
 51
-175.06433327925737
  0
ARC
  5
3b75d6ea
330
1F
  8
Layer
  6
Continuous
100
AcDbCircle
 10
13.467640447995887
 20
11.694942788794524
 30
0.0
 40
0.19711953417720537
100
AcDbArc
 50
138.39272141182178
 51
164.47353665195874
  0
ARC
  5
e2b4d60b
330
1F
  8
Layer
  6
Continuous
100
AcDbCircle
 10
13.404974851552154
 20
11.750594146320637
 30
0.0
 40
0.11330992510910474
100
AcDbArc
 50
111.88265211994491
 51
138.39272141182047
  0
ARC
  5
513ecc6f
330
1F
  8
Layer
  6
Continuous
100
AcDbCircle
 10
13.409333686086038
 20
11.739741711196901
 30
0.0
 40
0.12500500042346982
100
AcDbArc
 50
90.01661562810996
 51
111.88265211994943
  0
ARC
  5
b9547a57
330
1F
  8
Layer
  6
Continuous
100
AcDbCircle
 10
13.409389997210159
 20
11.545565025693767
 30
0.0
 40
0.3191816940917006
100
AcDbArc
 50
80.79468298772377
 51
90.01661569724733
  0
ARC
  5
3439787d
330
1F
  8
Layer
  6
Continuous
100
AcDbCircle
 10
13.371521557965123
 20
11.311895608274366
 30
0.0
 40
0.5558997021265283
100
AcDbArc
 50
76.50908486185612
 51
80.79468315118078
  0
ARC
  5
f692ad45
330
1F
  8
Layer
  6
Continuous
100
AcDbCircle
 10
13.92343995085828
 20
13.612408055254384
 30
0.0
 40
1.8098922226047538
100
AcDbArc
 50
-103.49091514659939
 51
-101.04677233845106
  0
ARC
  5
e974baba
330
1F
  8
Layer
  6
Continuous
100
AcDbCircle
 10
13.685382449898498
 20
12.393023719802395
 30
0.0
 40
0.5674874852872793
100
AcDbArc
 50
-101.04677230083627
 51
-94.97089918164977
  0
ARC
  5
d0fa7d6d
330
1F
  8
Layer
  6
Continuous
100
AcDbCircle
 10
13.670102108218746
 20
12.217340947588983
 30
0.0
 40
0.39114144678785834
100
AcDbArc
 50
-94.97089919427675
 51
-84.75809271877084
  0
ARC
  5
ac5580bb
330
1F
  8
Layer
  6
Continuous
100
AcDbCircle
 10
13.663252725533432
 20
12.29199796886569
 30
0.0
 40
0.4661120068036449
100
AcDbArc
 50
-84.7580927281992
 51
-74.51266709374448
  0
ARC
  5
6e4fb591
330
1F
  8
Layer
  6
Continuous
100
AcDbCircle
 10
13.695553700572743
 20
12.175424342244234
 30
0.0
 40
0.34514604707873403
100
AcDbArc
 50
-74.51266709374553
 51
-51.27771944283045
  0
ARC
  5
9f5377db
330
1F
  8
Layer
  6
Continuous
100
AcDbCircle
 10
13.667088264049722
 20
12.21092671325576
 30
0.0
 40
0.39065098553475397
100
AcDbArc
 50
-51.27771944281961
 51
-44.144842966566955
  0
ARC
  5
af96efd1
330
1F
  8
Layer
  6
Continuous
100
AcDbCircle
 10
13.597835253918308
 20
12.278142730159898
 30
0.0
 40
0.4871599091673316
100
AcDbArc
 50
-44.14484296656481
 51
-32.653628453313026
  0
ARC
  5
34991e01
330
1F
  8
Layer
  6
Continuous
100
AcDbCircle
 10
13.920954172581586
 20
12.071073173182283
 30
0.0
 40
0.10338440574764862
100
AcDbArc
 50
-32.653628453304
 51
-25.471662209913244
  0
ARC
  5
a3e1a1f5
330
1F
  8
Layer
  6
Continuous
100
AcDbCircle
 10
13.77134391185796
 20
12.14234279862995
 30
0.0
 40
0.26910281035390377
100
AcDbArc
 50
-25.47166220993794
 51
-18.11374530072229
  0
ARC
  5
e815431f
330
1F
  8
Layer
  6
Continuous
100
AcDbCircle
 10
13.881256178730977
 20
12.106388745003272
 30
0.0
 40
0.15345939125296454
100
AcDbArc
 50
-18.11374530071712
 51
-6.274921702671461
  0
ARC
  5
3c207a75
330
1F
  8
Layer
  6
Continuous
100
AcDbCircle
 10
14.00893576571592
 20
12.092349351022671
 30
0.0
 40
0.025010251450520014
100
AcDbArc
 50
-6.2749217554834225
 51
23.326617399006984
  0
ARC
  5
59efc506
330
1F
  8
Layer
  6
Continuous
100
AcDbCircle
 10
14.020171579162296
 20
12.09719444591641
 30
0.0
 40
0.012774302434154297
100
AcDbArc
 50
23.32661718151811
 51
96.0550035387746
  0
ARC
  5
ffcd15e8
330
1F
  8
Layer
  6
Continuous
100
AcDbCircle
 10
14.0518830408209
 20
11.798241013568962
 30
0.0
 40
0.31340492547985255
100
AcDbArc
 50
96.0550029678178
 51
99.01672068495235
  0
ARC
  5
77804960
330
1F
  8
Layer
  6
Continuous
100
AcDbCircle
 10
11.992705857998699
 20
24.77486382086656
 30
0.0
 40
12.8255809620661
100
AcDbArc
 50
-81.2806928247356
 51
-80.98327983149144
  0
ARC
  5
7b36bf33
330
1F
  8
Layer
  6
Continuous
100
AcDbCircle
 10
13.751624244159462
 20
13.306129099862657
 30
0.0
 40
1.2227507043257568
100
AcDbArc
 50
-84.49166691782808
 51
-81.28069289733821
  0
ARC
  5
953f4b1e
330
1F
  8
Layer
  6
Continuous
100
AcDbCircle
 10
13.76837669376612
 20
13.132413088339163
 30
0.0
 40
1.048228793874794
100
AcDbArc
 50
-91.03126004295697
 51
-84.49166693885532
  0
ARC
  5
9722d845
330
1F
  8
Layer
  6
Continuous
100
AcDbCircle
 10
13.757577012203464
 20
12.53245835642901
 30
0.0
 40
0.448176868235657
100
AcDbArc
 50
-101.03979685829908
 51
-91.03126002054297
  0
ARC
  5
95826309
330
1F
  8
Layer
  6
Continuous
100
AcDbCircle
 10
13.731228833333077
 20
12.397409602328079
 30
0.0
 40
0.3105818373878822
100
AcDbArc
 50
-115.17020800336302
 51
-101.03979687426485
  0
ARC
  5
64a6ddd5
330
1F
  8
Layer
  6
Continuous
100
AcDbCircle
 10
13.674407454788867
 20
12.276494871676256
 30
0.0
 40
0.17698153368962335
100
AcDbArc
 50
-133.9252631620788
 51
-115.17020798853399
  0
ARC
  5
efa546f3
330
1F
  8
Layer
  6
Continuous
100
AcDbCircle
 10
13.650494694565149
 20
12.251667757052616
 30
0.0
 40
0.14251117363852436
100
AcDbArc
 50
-169.4412688719809
 51
-133.92526298664475
  0
ARC
  5
3a921bf5
330
1F
  8
Layer
  6
Continuous
100
AcDbCircle
 10
13.711409312107362
 20
12.263022211723378
 30
0.0
 40
0.20447498784637075
100
AcDbArc
 50
175.55885547865626
 51
-169.44126891495065
  0
ARC
  5
2190770f
330
1F
  8
Layer
  6
Continuous
100
AcDbCircle
 10
13.794693875036401
 20
12.256553647990087
 30
0.0
 40
0.28801037399531365
100
AcDbArc
 50
162.1262407896951
 51
175.55885524463915
  0
ARC
  5
72052389
330
1F
  8
Layer
  6
Continuous
100
AcDbCircle
 10
14.108039764370432
 20
12.155504139972962
 30
0.0
 40
0.6172468383078752
100
AcDbArc
 50
152.961859075646
 51
162.1262407896949
  0
ARC
  5
445be1ed
330
1F
  8
Layer
  6
Continuous
100
AcDbCircle
 10
14.318326400295753
 20
12.048181360561674
 30
0.0
 40
0.8533371774354044
100
AcDbArc
 50
146.875016302505
 51
152.96185907565027
  0
ARC
  5
55a6d60f
330
1F
  8
Layer
  6
Continuous
100
AcDbCircle
 10
15.172339904882495
 20
11.4909261670661
 30
0.0
 40
1.8730785253733617
100
AcDbArc
 50
142.76765244637576
 51
146.87501630250227
  0
ARC
  5
1bb3f7da
330
1F
  8
Layer
  6
Continuous
100
AcDbCircle
 10
26.514078416243173
 20
2.8719813519323445
 30
0.0
 40
16.118121248594765
100
AcDbArc
 50
142.45894074132346
 51
142.76765244637915
  0
ARC
  5
f038d2c9
330
1F
  8
Layer
  6
Continuous
100
AcDbCircle
 10
13.066207832198717
 20
13.206214989252473
 30
0.0
 40
0.8418789906719509
100
AcDbArc
 50
-37.5410592586723
 51
-33.26661904573861
  0
ARC
  5
5271a399
330
1F
  8
Layer
  6
Continuous
100
AcDbCircle
 10
13.194114541325643
 20
13.122302618264035
 30
0.0
 40
0.6889037892679933
100
AcDbArc
 50
-33.26661904574243
 51
-22.87864021939421
  0
ARC
  5
8e9f9e0c
330
1F
  8
Layer
  6
Continuous
100
AcDbCircle
 10
12.855364472005924
 20
13.265247453949552
 30
0.0
 40
1.0565786939232813
100
AcDbArc
 50
-22.878640219391976
 51
-16.89850092544636
  0
ARC
  5
00a438c7
330
1F
  8
Layer
  6
Continuous
100
AcDbCircle
 10
13.210638362413462
 20
13.157317146304363
 30
0.0
 40
0.6852722322050763
100
AcDbArc
 50
-16.898500925459885
 51
-14.829950710745157
  0
ARC
  5
fe238557
330
1F
  8
Layer
  6
Continuous
100
AcDbCircle
 10
13.727645457637024
 20
13.020428813862836
 30
0.0
 40
0.1504500635638272
100
AcDbArc
 50
-14.829950710730328
 51
-7.766413068886123
  0
ARC
  5
ed06cbaf
330
1F
  8
Layer
  6
Continuous
100
AcDbCircle
 10
13.505950670830622
 20
13.050664836111583
 30
0.0
 40
0.37419723234717256
100
AcDbArc
 50
-7.766413068881618
 51
-2.5982530513598956
  0
ARC
  5
d2bc674e
330
1F
  8
Layer
  6
Continuous
100
AcDbCircle
 10
13.414906277060977
 20
13.05479635617607
 30
0.0
 40
0.4653353204054882
100
AcDbArc
 50
-2.598253051351572
 51
2.035942683853024
  0
ARC
  5
a9088713
330
1F
  8
Layer
  6
Continuous
100
AcDbCircle
 10
13.619663613507756
 20
13.06207524671216
 30
0.0
 40
0.2604486466655514
100
AcDbArc
 50
2.0359428337453833
 51
11.99826781709433
  0
ARC
  5
a5a7cb63
330
1F
  8
Layer
  6
Continuous
100
AcDbCircle
 10
13.84184122719615
 20
13.109293535748723
 30
0.0
 40
0.03330891248456327
100
AcDbArc
 50
11.998268223909724
 51
34.838734066680566
  0
ARC
  5
c63e01fb
330
1F
  8
Layer
  6
Continuous
100
AcDbCircle
 10
13.85820435275725
 20
13.120682617790902
 30
0.0
 40
0.01337243667032385
100
AcDbArc
 50
34.838733423766534
 51
58.935554868291284
  0
ARC
  5
d23b6d01
330
1F
  8
Layer
  6
Continuous
100
AcDbCircle
 10
13.860461009135586
 20
13.124428773916815
 30
0.0
 40
0.008999087412648531
100
AcDbArc
 50
58.93555463554761
 51
117.7966010751289
  0
ARC
  5
ea409bfe
330
1F
  8
Layer
  6
Continuous
100
AcDbCircle
 10
13.869168941828217
 20
13.107910335313868
 30
0.0
 40
0.02767224744673791
100
AcDbArc
 50
117.79660158632866
 51
142.54306096849527
  0
ARC
  5
ea55fe1f
330
1F
  8
Layer
  6
Continuous
100
AcDbCircle
 10
20.72873276355218
 20
7.852567938056252
 30
0.0
 40
8.668982306501306
100
AcDbArc
 50
142.54306099632225
 51
142.75721812202332
  0
ARC
  5
4a673090
330
1F
  8
Layer
  6
Continuous
100
AcDbCircle
 10
10.730760515631447
 20
15.453215024835231
 30
0.0
 40
3.89004971065491
100
AcDbArc
 50
-38.55621011279304
 51
-37.242781791620274
  0
ARC
  5
03dd4a46
330
1F
  8
Layer
  6
Continuous
100
AcDbCircle
 10
13.492061237261622
 20
13.252350801752
 30
0.0
 40
0.3589613509953721
100
AcDbArc
 50
-46.69623619875763
 51
-38.55621033381726
  0
ARC
  5
c7cf9cba
330
1F
  8
Layer
  6
Continuous
100
AcDbCircle
 10
13.401195904994376
 20
13.348762063229483
 30
0.0
 40
0.4914439534294901
100
AcDbArc
 50
-57.69542074303287
 51
-46.69623643060643
  0
ARC
  5
5424f074
330
1F
  8
Layer
  6
Continuous
100
AcDbCircle
 10
13.4449868618622
 20
13.27950387702877
 30
0.0
 40
0.4095028510497195
100
AcDbArc
 50
-64.35759528861786
 51
-57.69542088042459
  0
ARC
  5
7eabe811
330
1F
  8
Layer
  6
Continuous
100
AcDbCircle
 10
13.504212756167412
 20
13.156124317317394
 30
0.0
 40
0.2726444486374988
100
AcDbArc
 50
-76.37459087982808
 51
-64.35759514151893
  0
ARC
  5
a75afecd
330
1F
  8
Layer
  6
Continuous
100
AcDbCircle
 10
13.545079942447982
 20
12.987526794416677
 30
0.0
 40
0.0991646179863579
100
AcDbArc
 50
-96.36513464437962
 51
-76.37459081304473
  0
ARC
  5
de1ca260
330
1F
  8
Layer
  6
Continuous
100
AcDbCircle
 10
13.541149223860568
 20
12.952290096674746
 30
0.0
 40
0.06370935862516286
100
AcDbArc
 50
-117.64908874229783
 51
-96.36513462248203
  0
ARC
  5
e23825ee
330
1F
  8
Layer
  6
Continuous
100
AcDbCircle
 10
13.537470950663785
 20
12.945268866180898
 30
0.0
 40
0.055782986733943773
100
AcDbArc
 50
-148.7830576639939
 51
-117.64908912854666
  0
ARC
  5
3e68765b
330
1F
  8
Layer
  6
Continuous
100
AcDbCircle
 10
13.55764159224518
 20
12.957492793643423
 30
0.0
 40
0.07936855826431223
100
AcDbArc
 50
-170.64762591586083
 51
-148.78305817510105
  0
ARC
  5
6f842338
330
1F
  8
Layer
  6
Continuous
100
AcDbCircle
 10
13.698692315009218
 20
12.980723146401191
 30
0.0
 40
0.2223194438212328
100
AcDbArc
 50
176.3395412533616
 51
-170.64762611465306
  0
ARC
  5
b57d2f73
330
1F
  8
Layer
  6
Continuous
100
AcDbCircle
 10
14.905841453062397
 20
12.903496840576688
 30
0.0
 40
1.4319363020924087
100
AcDbArc
 50
174.92064901606352
 51
176.33954112203688
  0
ARC
  5
3927d3a7
330
1F
  8
Layer
  6
Continuous
100
AcDbCircle
 10
12.6503234496253
 20
13.103977137636754
 30
0.0
 40
0.8324739552015656
100
AcDbArc
 50
-5.079350983923775
 51
-0.5458482044776857
  0
ARC
  5
4bc4d63c
330
1F
  8
Layer
  6
Continuous
100
AcDbCircle
 10
12.77782917918996
 20
13.102762373427437
 30
0.0
 40
0.7049624391573257
100
AcDbArc
 50
-0.5458482285018411
 51
8.486283068777405
  0
ARC
  5
198c7861
330
1F
  8
Layer
  6
Continuous
100
AcDbCircle
 10
13.079170339745271
 20
13.14772435985652
 30
0.0
 40
0.40028543761557395
100
AcDbArc
 50
8.4862831089291
 51
20.4821616965852
  0
ARC
  5
fbb35d36
330
1F
  8
Layer
  6
Continuous
100
AcDbCircle
 10
13.132594769974329
 20
13.167679979970192
 30
0.0
 40
0.34325565136820535
100
AcDbArc
 50
20.482161685996918
 51
46.63983661520474
  0
ARC
  5
4e2ce207
330
1F
  8
Layer
  6
Continuous
100
AcDbCircle
 10
13.042112320796772
 20
13.07186411462815
 30
0.0
 40
0.4750424248335801
100
AcDbArc
 50
46.639836610403556
 51
57.98045566234996
  0
ARC
  5
02675058
330
1F
  8
Layer
  6
Continuous
100
AcDbCircle
 10
12.910293488581207
 20
12.861069921894432
 30
0.0
 40
0.7236593917061882
100
AcDbArc
 50
57.98045568676424
 51
64.67793236871564
  0
ARC
  5
5d490840
330
1F
  8
Layer
  6
Continuous
100
AcDbCircle
 10
12.573955610847937
 20
12.150250360484897
 30
0.0
 40
1.5100356482657062
100
AcDbArc
 50
64.67793229274115
 51
69.3129976026077
  0
ARC
  5
08fdb280
330
1F
  8
Layer
  6
Continuous
100
AcDbCircle
 10
12.787949469037333
 20
12.716957435707897
 30
0.0
 40
0.9042714363394894
100
AcDbArc
 50
69.31299763977084
 51
71.24613745253332
  0
ARC
  5
ca4542d4
330
1F
  8
Layer
  6
Continuous
100
AcDbCircle
 10
13.020609190724278
 20
13.402199101447493
 30
0.0
 40
0.18060943888417108
100
AcDbArc
 50
71.24613766605317
 51
82.61480187235082
  0
ARC
  5
bd65ed9d
330
1F
  8
Layer
  6
Continuous
100
AcDbCircle
 10
13.029463618964018
 20
13.470512592317137
 30
0.0
 40
0.11172450632087681
100
AcDbArc
 50
82.61480195653621
 51
96.02498250161293
  0
ARC
  5
20ef2dff
330
1F
  8
Layer
  6
Continuous
100
AcDbCircle
 10
13.01957889659013
 20
13.564166610387748
 30
0.0
 40
0.017550290968801032
100
AcDbArc
 50
96.02498331116945
 51
130.29124151369908
  0
ARC
  5
3fce8124
330
1F
  8
Layer
  6
Continuous
100
AcDbCircle
 10
13.01484274482467
 20
13.569753019952993
 30
0.0
 40
0.010226418674984734
100
AcDbArc
 50
130.29124204763843
 51
-174.37820510430174
  0
ARC
  5
2dfcd91b
330
1F
  8
Layer
  6
Continuous
100
AcDbCircle
 10
13.036613082984946
 20
13.571895981258292
 30
0.0
 40
0.032101973679802796
100
AcDbArc
 50
-174.37820549570333
 51
-154.30930658901846
  0
ARC
  5
1f1687e4
330
1F
  8
Layer
  6
Continuous
100
AcDbCircle
 10
13.305818504676164
 20
13.701401951700255
 30
0.0
 40
0.3308382377122445
100
AcDbArc
 50
-154.30930636921835
 51
-148.8015012490588
  0
ARC
  5
682d820c
330
1F
  8
Layer
  6
Continuous
100
AcDbCircle
 10
14.167873064555005
 20
14.223449881169227
 30
0.0
 40
1.338643826539148
100
AcDbArc
 50
-148.80150117856445
 51
-146.06416607625863
  0
ARC
  5
f91bf633
330
1F
  8
Layer
  6
Continuous
100
AcDbCircle
 10
4.4410451665398085
 20
7.678458822142758
 30
0.0
 40
10.385181868187942
100
AcDbArc
 50
33.564926342657635
 51
33.93583383980945
  0
ARC
  5
77406807
330
1F
  8
Layer
  6
Continuous
100
AcDbCircle
 10
12.679160713717568
 20
13.144583597308738
 30
0.0
 40
0.4985713354353113
100
AcDbArc
 50
26.213577047940326
 51
33.56492630918522
  0
ARC
  5
3e2fdc45
330
1F
  8
Layer
  6
Continuous
100
AcDbCircle
 10
12.777432708559683
 20
13.192968342138673
 30
0.0
 40
0.38903381445502644
100
AcDbArc
 50
11.985831810353307
 51
26.213577061888607
  0
ARC
  5
cfc23ef3
330
1F
  8
Layer
  6
Continuous
100
AcDbCircle
 10
12.769566066245197
 20
13.191298268761733
 30
0.0
 40
0.3970757797862384
100
AcDbArc
 50
-2.096362138535212
 51
11.985831809161441
  0
ARC
  5
2b1249cc
330
1F
  8
Layer
  6
Continuous
100
AcDbCircle
 10
12.801812192694051
 20
13.190117906600593
 30
0.0
 40
0.3648080571243124
100
AcDbArc
 50
-12.446357626304673
 51
-2.0963620566118344
  0
ARC
  5
a5e06181
330
1F
  8
Layer
  6
Continuous
100
AcDbCircle
 10
12.694334628481974
 20
13.213839560588864
 30
0.0
 40
0.4748723277887775
100
AcDbArc
 50
-28.666322104837516
 51
-12.446357588632688
  0
ARC
  5
dcebf442
330
1F
  8
Layer
  6
Continuous
100
AcDbCircle
 10
12.739730572444833
 20
13.189020677691262
 30
0.0
 40
0.42313483000850277
100
AcDbArc
 50
-40.85950828338049
 51
-28.66632214117603
  0
ARC
  5
d6a8b5d5
330
1F
  8
Layer
  6
Continuous
100
AcDbCircle
 10
12.85519763219515
 20
13.089142719066565
 30
0.0
 40
0.2704644382934735
100
AcDbArc
 50
-56.12698680797677
 51
-40.85950846954003
  0
ARC
  5
0622d5ae
330
1F
  8
Layer
  6
Continuous
100
AcDbCircle
 10
12.866011586674507
 20
13.073033473622981
 30
0.0
 40
0.25106213430030777
100
AcDbArc
 50
-68.19452902127038
 51
-56.12698700550984
  0
ARC
  5
f96c4475
330
1F
  8
Layer
  6
Continuous
100
AcDbCircle
 10
12.804897291891422
 20
13.225787812937789
 30
0.0
 40
0.41558825747330885
100
AcDbArc
 50
-80.45370100610042
 51
-68.1945292797877
  0
ARC
  5
5d773577
330
1F
  8
Layer
  6
Continuous
100
AcDbCircle
 10
12.780223725760456
 20
13.37250282233111
 30
0.0
 40
0.564363520359655
100
AcDbArc
 50
-87.799428332863
 51
-80.45370088701121
  0
ARC
  5
828b48a4
330
1F
  8
Layer
  6
Continuous
100
AcDbCircle
 10
12.410468888518674
 20
22.994989490109262
 30
0.0
 40
10.193951689706866
100
AcDbArc
 50
-88.2211084300358
 51
-87.7994281254307
  0
ARC
  5
96d81b00
330
1F
  8
Layer
  6
Continuous
100
AcDbCircle
 10
12.758660984976709
 20
11.783779614414275
 30
0.0
 40
1.0226638699401873
100
AcDbArc
 50
91.7788917679822
 51
95.89677568107204
  0
ARC
  5
1eb038fd
330
1F
  8
Layer
  6
Continuous
100
AcDbCircle
 10
12.678887219322608
 20
12.556159488934405
 30
0.0
 40
0.24617528390020785
100
AcDbArc
 50
95.89677576402772
 51
109.15562046577584
  0
ARC
  5
a3066b48
330
1F
  8
Layer
  6
Continuous
100
AcDbCircle
 10
12.65509664457724
 20
12.62464747630808
 30
0.0
 40
0.1736728986897092
100
AcDbArc
 50
109.15562047623219
 51
126.06085791133445
  0
ARC
  5
0479377b
330
1F
  8
Layer
  6
Continuous
100
AcDbCircle
 10
12.647086368540323
 20
12.63564808595611
 30
0.0
 40
0.16006488873909794
100
AcDbArc
 50
126.0608581632217
 51
143.6755258230661
  0
ARC
  5
c313afba
330
1F
  8
Layer
  6
Continuous
100
AcDbCircle
 10
12.678730891412737
 20
12.612382056223936
 30
0.0
 40
0.19934190450304362
100
AcDbArc
 50
143.6755259875989
 51
152.77089416422953
  0
ARC
  5
432943cf
330
1F
  8
Layer
  6
Continuous
100
AcDbCircle
 10
12.72266621179405
 20
12.58977414538724
 30
0.0
 40
0.24875273337089784
100
AcDbArc
 50
152.77089373684424
 51
160.91127788243517
  0
ARC
  5
af2d221b
330
1F
  8
Layer
  6
Continuous
100
AcDbCircle
 10
12.530147657446884
 20
12.656397235758224
 30
0.0
 40
0.04503226326908808
100
AcDbArc
 50
160.91127719761386
 51
172.33242720721677
  0
ARC
  5
406dfbe5
330
1F
  8
Layer
  6
Continuous
100
AcDbCircle
 10
12.4923299597417
 20
12.661488596014069
 30
0.0
 40
0.006873382140631699
100
AcDbArc
 50
172.33242619134197
 51
-97.52076782125685
  0
ARC
  5
23891e42
330
1F
  8
Layer
  6
Continuous
100
AcDbCircle
 10
12.493644417195988
 20
12.671445000702928
 30
0.0
 40
0.01691618019333968
100
AcDbArc
 50
-97.52076888790405
 51
-76.07310282284243
  0
ARC
  5
22a6d57e
330
1F
  8
Layer
  6
Continuous
100
AcDbCircle
 10
12.454006507282845
 20
12.831292550756157
 30
0.0
 40
0.18160498722132704
100
AcDbArc
 50
-76.0731040264987
 51
-69.56188366392121
  0
ARC
  5
9e73049e
330
1F
  8
Layer
  6
Continuous
100
AcDbCircle
 10
13.243485417318633
 20
10.712762606340634
 30
0.0
 40
2.079245754153815
100
AcDbArc
 50
109.53571714988357
 51
110.43811633607963
  0
ARC
  5
25c70185
330
1F
  8
Layer
  6
Continuous
100
AcDbCircle
 10
12.570909669314542
 20
12.60830179381512
 30
0.0
 40
0.06792107920581178
100
AcDbArc
 50
97.04936330189615
 51
109.53571714984386
  0
ARC
  5
6d969d19
330
1F
  8
Layer
  6
Continuous
100
AcDbCircle
 10
12.56708763791708
 20
12.639209576809728
 30
0.0
 40
0.03677787812363354
100
AcDbArc
 50
82.61654153746696
 51
97.04936354043862
  0
ARC
  5
52e76663
330
1F
  8
Layer
  6
Continuous
100
AcDbCircle
 10
12.569758910193535
 20
12.659823823239963
 30
0.0
 40
0.015991275431962132
100
AcDbArc
 50
60.65227539713745
 51
82.61654403759836
  0
ARC
  5
ef22e07d
330
1F
  8
Layer
  6
Continuous
100
AcDbCircle
 10
12.555050518456241
 20
12.633664852923033
 30
0.0
 40
0.0460017488627433
100
AcDbArc
 50
29.33917124307367
 51
60.6522776546673
  0
ARC
  5
e5dd6027
330
1F
  8
Layer
  6
Continuous
100
AcDbCircle
 10
12.514940876462958
 20
12.61112030042217
 30
0.0
 40
0.09201305430275017
100
AcDbArc
 50
7.3382069214525405
 51
29.33917133215257
  0
ARC
  5
a6382509
330
1F
  8
Layer
  6
Continuous
100
AcDbCircle
 10
12.468665432105265
 20
12.605160911965305
 30
0.0
 40
0.13867064812499627
100
AcDbArc
 50
-9.59351362658281
 51
7.338206953934502
  0
ARC
  5
c2a2d605
330
1F
  8
Layer
  6
Continuous
100
AcDbCircle
 10
12.344119667952281
 20
12.626211748445721
 30
0.0
 40
0.26498290044034467
100
AcDbArc
 50
-30.439464646318743
 51
-9.593513622232111
  0
ARC
  5
7ec5d678
330
1F
  8
Layer
  6
Continuous
100
AcDbCircle
 10
12.340729559242943
 20
12.62820385494205
 30
0.0
 40
0.26891498962471416
100
AcDbArc
 50
-52.59263542561657
 51
-30.43946490986451
  0
ARC
  5
29cde205
330
1F
  8
Layer
  6
Continuous
100
AcDbCircle
 10
12.378545001736573
 20
12.578756483425726
 30
0.0
 40
0.2066650880917611
100
AcDbArc
 50
-87.62144267972403
 51
-52.5926354933678
  0
ARC
  5
35f22c8c
330
1F
  8
Layer
  6
Continuous
100
AcDbCircle
 10
12.38226761715053
 20
12.489135935553316
 30
0.0
 40
0.11696725943091187
100
AcDbArc
 50
-99.15457939663183
 51
-87.62144268637533
  0
ARC
  5
2b6f5fd9
330
1F
  8
Layer
  6
Continuous
100
AcDbCircle
 10
12.40647965976348
 20
12.639380167960269
 30
0.0
 40
0.2691498878056566
100
AcDbArc
 50
-106.75026746858241
 51
-99.15457941736257
  0
ARC
  5
df35940f
330
1F
  8
Layer
  6
Continuous
100
AcDbCircle
 10
12.36861320911233
 20
12.513565855255333
 30
0.0
 40
0.13776073541349226
100
AcDbArc
 50
-117.48101793939287
 51
-106.75026749867871
  0
ARC
  5
4cc7371a
330
1F
  8
Layer
  6
Continuous
100
AcDbCircle
 10
12.31402948567956
 20
12.408626628662223
 30
0.0
 40
0.019474539508198427
100
AcDbArc
 50
-146.28193621030246
 51
-117.48101853242096
  0
ARC
  5
942be865
330
1F
  8
Layer
  6
Continuous
100
AcDbCircle
 10
12.304916620235119
 20
12.402544950966881
 30
0.0
 40
0.008518668013950024
100
AcDbArc
 50
149.32172301490758
 51
-146.28193709866855
  0
ARC
  5
831ed0c9
330
1F
  8
Layer
  6
Continuous
100
AcDbCircle
 10
12.525630428626327
 20
12.271607840307382
 30
0.0
 40
0.26514897051622427
100
AcDbArc
 50
145.00117220484842
 51
149.32172331547557
  0
ARC
  5
c9a8a38a
330
1F
  8
Layer
  6
Continuous
100
AcDbCircle
 10
13.028485039114155
 20
11.919520583040695
 30
0.0
 40
0.879012307113583
100
AcDbArc
 50
141.63404656836224
 51
145.00117220484975
  0
ARC
  5
8d766d55
330
1F
  8
Layer
  6
Continuous
100
AcDbCircle
 10
12.007886381254783
 20
12.727450130447767
 30
0.0
 40
0.42266805841312494
100
AcDbArc
 50
-38.36595343163657
 51
-31.360069486480917
  0
ARC
  5
3848954b
330
1F
  8
Layer
  6
Continuous
100
AcDbCircle
 10
11.931722924881349
 20
12.773867676930687
 30
0.0
 40
0.5118614477883588
100
AcDbArc
 50
-31.360069486474938
 51
-27.155783772131755
  0
ARC
  5
39f0ce33
330
1F
  8
Layer
  6
Continuous
100
AcDbCircle
 10
10.937337555560694
 20
13.283942653568868
 30
0.0
 40
1.6294386238757277
100
AcDbArc
 50
-27.1557837721369
 51
-23.330010711400497
  0
ARC
  5
bf49c933
330
1F
  8
Layer
  6
Continuous
100
AcDbCircle
 10
11.272496276309845
 20
13.139392345628362
 30
0.0
 40
1.2644370353587706
100
AcDbArc
 50
-23.330010711398284
 51
-17.574698329246647
  0
ARC
  5
38f599b6
330
1F
  8
Layer
  6
Continuous
100
AcDbCircle
 10
11.78034045729292
 20
12.978541477237897
 30
0.0
 40
0.7317281899090832
100
AcDbArc
 50
-17.57469832924774
 51
-10.006791785790561
  0
ARC
  5
a7ac3ac8
330
1F
  8
Layer
  6
Continuous
100
AcDbCircle
 10
9.656960064234232
 20
13.353210265468869
 30
0.0
 40
2.887910231041167
100
AcDbArc
 50
-10.006791785766811
 51
-9.462033016197164
  0
ARC
  5
f03f5e16
330
1F
  8
Layer
  6
Continuous
100
AcDbCircle
 10
12.541194053609585
 20
12.872519562679189
 30
0.0
 40
0.03610571577179039
100
AcDbArc
 50
133.69924374561782
 51
170.53796698381103
  0
ARC
  5
8f76d0c3
330
1F
  8
Layer
  6
Continuous
100
AcDbCircle
 10
12.541591124760513
 20
12.872104040474316
 30
0.0
 40
0.036680454148482096
100
AcDbArc
 50
100.9796800467536
 51
133.69924374561262
  0
ARC
  5
b1bfe457
330
1F
  8
Layer
  6
Continuous
100
AcDbCircle
 10
12.568736066111759
 20
12.732190521937632
 30
0.0
 40
0.17920287522768255
100
AcDbArc
 50
95.3533557867449
 51
100.97968004675725
  0
ARC
  5
b8ab8ae2
330
1F
  8
Layer
  6
Continuous
100
AcDbCircle
 10
12.523157395253373
 20
13.21858857139347
 30
0.0
 40
0.3093260161919119
100
AcDbArc
 50
-84.64664421325095
 51
-81.15282865343595
  0
ARC
  5
d734dc25
330
1F
  8
Layer
  6
Continuous
100
AcDbCircle
 10
12.568077658230749
 20
12.929993106548638
 30
0.0
 40
0.017255524092897122
100
AcDbArc
 50
-81.15282865345988
 51
-49.20634395926819
  0
ARC
  5
a31341c0
330
1F
  8
Layer
  6
Continuous
100
AcDbCircle
 10
12.570615871513809
 20
12.927051899839682
 30
0.0
 40
0.013370524276282103
100
AcDbArc
 50
-49.206343959201305
 51
-1.6856005356078105
  0
ARC
  5
d1b536fc
330
1F
  8
Layer
  6
Continuous
100
AcDbCircle
 10
12.54221190197996
 20
12.92788776487296
 30
0.0
 40
0.04178678996397702
100
AcDbArc
 50
-1.6855999369278543
 51
24.662630778798757
  0
ARC
  5
05051297
330
1F
  8
Layer
  6
Continuous
100
AcDbCircle
 10
12.450873210544517
 20
12.885948812144859
 30
0.0
 40
0.14229366688824086
100
AcDbArc
 50
24.662631575616878
 51
32.57443113478216
  0
ARC
  5
b2e80877
330
1F
  8
Layer
  6
Continuous
100
AcDbCircle
 10
13.224923516500482
 20
13.380488073571648
 30
0.0
 40
0.7762502663251252
100
AcDbArc
 50
-150.11681912692612
 51
-147.4255684635006
  0
ARC
  5
927c1ea5
330
1F
  8
Layer
  6
Continuous
100
AcDbCircle
 10
12.75245699382096
 20
13.108992294577074
 30
0.0
 40
0.23133323313130913
100
AcDbArc
 50
-158.63447961665582
 51
-150.11681890045568
  0
ARC
  5
11a08e19
330
1F
  8
Layer
  6
Continuous
100
AcDbCircle
 10
12.57102412047864
 20
13.038015451315076
 30
0.0
 40
0.03651126360864809
100
AcDbArc
 50
179.8184544066983
 51
-158.63447933814518
  0
ARC
  5
9ad2a8af
330
1F
  8
Layer
  6
Continuous
100
AcDbCircle
 10
12.553191642736945
 20
13.038071955024206
 30
0.0
 40
0.018678696348794547
100
AcDbArc
 50
150.69898020472414
 51
179.81845469975593
  0
ARC
  5
17473b0d
330
1F
  8
Layer
  6
Continuous
100
AcDbCircle
 10
12.549700330853032
 20
13.040031269589408
 30
0.0
 40
0.014675176368057563
100
AcDbArc
 50
117.74688952745403
 51
150.6989802046443
  0
ARC
  5
e5cccebd
330
1F
  8
Layer
  6
Continuous
100
AcDbCircle
 10
12.554313381208186
 20
13.031262147777577
 30
0.0
 40
0.02458364400588826
100
AcDbArc
 50
94.2313829518556
 51
117.74688952741147
  0
ARC
  5
69595931
330
1F
  8
Layer
  6
Continuous
100
AcDbCircle
 10
12.559652581776795
 20
12.959097255365155
 30
0.0
 40
0.0969457802347765
100
AcDbArc
 50
82.45191437562899
 51
94.23138299575346
  0
ARC
  5
477d317c
330
1F
  8
Layer
  6
Continuous
100
AcDbCircle
 10
12.474100748838119
 20
12.31345420883977
 30
0.0
 40
0.7482322453526598
100
AcDbArc
 50
80.99297698522213
 51
82.45191414263526
  0
ARC
  5
91ec1e86
330
1F
  8
Layer
  6
Continuous
100
AcDbCircle
 10
12.596104696730224
 20
13.083146193908618
 30
0.0
 40
0.03106918232502986
100
AcDbArc
 50
-99.00702346983387
 51
-72.16307981086604
  0
ARC
  5
157ea00a
330
1F
  8
Layer
  6
Continuous
100
AcDbCircle
 10
12.600901706465939
 20
13.068238269247622
 30
0.0
 40
0.015408482465109818
100
AcDbArc
 50
-72.16307969111809
 51
-37.56277311312194
  0
ARC
  5
bb98d34b
330
1F
  8
Layer
  6
Continuous
100
AcDbCircle
 10
12.602212873380518
 20
13.067229891251456
 30
0.0
 40
0.013754401191097287
100
AcDbArc
 50
-37.562773113159025
 51
-0.8712103440123548
  0
ARC
  5
49c19d69
330
1F
  8
Layer
  6
Continuous
100
AcDbCircle
 10
12.58216830801988
 20
13.06753470184631
 30
0.0
 40
0.033801283991065495
100
AcDbArc
 50
-0.8712098106685842
 51
26.073528305709797
  0
ARC
  5
985ec449
330
1F
  8
Layer
  6
Continuous
100
AcDbCircle
 10
12.510597011646595
 20
13.032513277840394
 30
0.0
 40
0.113481586475144
100
AcDbArc
 50
26.073529082367845
 51
40.683377138896056
  0
ARC
  5
3f42d87b
330
1F
  8
Layer
  6
Continuous
100
AcDbCircle
 10
12.282941351100172
 20
12.836813399346022
 30
0.0
 40
0.4136907505949966
100
AcDbArc
 50
40.68337746997291
 51
46.34660338196265
  0
ARC
  5
688df55b
330
1F
  8
Layer
  6
Continuous
100
AcDbCircle
 10
12.942724352901893
 20
13.52836215145551
 30
0.0
 40
0.542109064225387
100
AcDbArc
 50
-137.97434517317092
 51
-133.6533961122525
  0
ARC
  5
a4453303
330
1F
  8
Layer
  6
Continuous
100
AcDbCircle
 10
12.656633214888938
 20
13.270532485328854
 30
0.0
 40
0.15698015595630896
100
AcDbArc
 50
-147.6101285344976
 51
-137.97434510338735
  0
ARC
  5
3dbd1f51
330
1F
  8
Layer
  6
Continuous
100
AcDbCircle
 10
12.543099320268917
 20
13.19850983462007
 30
0.0
 40
0.022528650041689878
100
AcDbArc
 50
-173.228627243354
 51
-147.61012910084142
  0
ARC
  5
7e5ea3b8
330
1F
  8
Layer
  6
Continuous
100
AcDbCircle
 10
12.533757755920922
 20
13.197400653826406
 30
0.0
 40
0.013121466270721586
100
AcDbArc
 50
114.39886792729817
 51
-173.22862804331976
  0
ARC
  5
252938eb
330
1F
  8
Layer
  6
Continuous
100
AcDbCircle
 10
12.552710471899488
 20
13.155617428923662
 30
0.0
 40
0.059002217422348256
100
AcDbArc
 50
101.58470543515708
 51
114.39886792725179
  0
ARC
  5
afc5e6d4
330
1F
  8
Layer
  6
Continuous
100
AcDbCircle
 10
12.565234674172121
 20
13.094521478547161
 30
0.0
 40
0.12136864104094126
100
AcDbArc
 50
88.17255699896009
 51
101.58470543520122
  0
ARC
  5
f5709833
330
1F
  8
Layer
  6
Continuous
100
AcDbCircle
 10
12.572297033018259
 20
13.315872367895839
 30
0.0
 40
0.10009488446139045
100
AcDbArc
 50
-91.82744300106623
 51
-83.0813647391118
  0
ARC
  5
fc50bbad
330
1F
  8
Layer
  6
Continuous
100
AcDbCircle
 10
12.577757589173954
 20
13.270871487894498
 30
0.0
 40
0.05476391409427296
100
AcDbArc
 50
-83.08136473913643
 51
-64.69034733735252
  0
ARC
  5
a594f64c
330
1F
  8
Layer
  6
Continuous
100
AcDbCircle
 10
12.595087361402667
 20
13.234226051396213
 30
0.0
 40
0.014227399423559899
100
AcDbArc
 50
-64.69034733732178
 51
-28.14681279445166
  0
ARC
  5
6114cab3
330
1F
  8
Layer
  6
Continuous
100
AcDbCircle
 10
12.596692088148401
 20
13.2333675214496
 30
0.0
 40
0.012407448435839392
100
AcDbArc
 50
-28.146812794505774
 51
27.38054142696451
  0
ARC
  5
2b42e3f9
330
1F
  8
Layer
  6
Continuous
100
AcDbCircle
 10
12.569541619315803
 20
13.219305750870321
 30
0.0
 40
0.04298327793651064
100
AcDbArc
 50
27.380541953256493
 51
46.274212801577
  0
ARC
  5
ca01fc65
330
1F
  8
Layer
  6
Continuous
100
AcDbCircle
 10
12.541713871441596
 20
13.19021190227367
 30
0.0
 40
0.08324288024347855
100
AcDbArc
 50
46.27421315118929
 51
64.68041062106728
  0
ARC
  5
b5bf2a16
330
1F
  8
Layer
  6
Continuous
100
AcDbCircle
 10
12.460075275062183
 20
13.017656833966225
 30
0.0
 40
0.2741358136312498
100
AcDbArc
 50
64.68041084585849
 51
77.45625030455052
  0
ARC
  5
f637b923
330
1F
  8
Layer
  6
Continuous
100
AcDbCircle
 10
12.447711934068671
 20
12.962090231419133
 30
0.0
 40
0.33106119917362764
100
AcDbArc
 50
77.45625037788083
 51
83.76187568344695
  0
ARC
  5
7c5795d4
330
1F
  8
Layer
  6
Continuous
100
AcDbCircle
 10
12.522419466194682
 20
13.645548811527929
 30
0.0
 40
0.35646832461476374
100
AcDbArc
 50
-102.0939122566914
 51
-96.23812434961717
  0
ARC
  5
a62826ad
330
1F
  8
Layer
  6
Continuous
100
AcDbCircle
 10
12.480524034608743
 20
13.450022725217858
 30
0.0
 40
0.1565041337817386
100
AcDbArc
 50
-114.38968745928467
 51
-102.09391229069568
  0
ARC
  5
048f49cc
330
1F
  8
Layer
  6
Continuous
100
AcDbCircle
 10
12.431117907988435
 20
13.341055394539168
 30
0.0
 40
0.03685947446565924
100
AcDbArc
 50
-139.88733769459049
 51
-114.38968773134192
  0
ARC
  5
b66d50eb
330
1F
  8
Layer
  6
Continuous
100
AcDbCircle
 10
12.420603453559371
 20
13.332197429720143
 30
0.0
 40
0.023111118466632538
100
AcDbArc
 50
173.43593719715503
 51
-139.8873375335429
  0
ARC
  5
dda0eff8
330
1F
  8
Layer
  6
Continuous
100
AcDbCircle
 10
12.436250660964186
 20
13.33039693132125
 30
0.0
 40
0.0388615754140905
100
AcDbArc
 50
137.85858879640458
 51
173.43593766795775
  0
ARC
  5
08e3f7cd
330
1F
  8
Layer
  6
Continuous
100
AcDbCircle
 10
12.43363723575647
 20
13.332761775487052
 30
0.0
 40
0.03533702164873808
100
AcDbArc
 50
116.8373517791939
 51
137.8585887964183
  0
ARC
  5
c7904dce
330
1F
  8
Layer
  6
Continuous
100
AcDbCircle
 10
12.51617272439433
 20
13.169633613126193
 30
0.0
 40
0.21815634294690162
100
AcDbArc
 50
108.4167779923805
 51
116.83735177919176
  0
ARC
  5
ece6bbfb
330
1F
  8
Layer
  6
Continuous
100
AcDbCircle
 10
12.784939138249253
 20
12.362481191788364
 30
0.0
 40
1.0688798094669902
100
AcDbArc
 50
106.24161250215924
 51
108.41677799239409
  0
ARC
  5
ef703d58
330
1F
  8
Layer
  6
Continuous
100
AcDbCircle
 10
12.450057218557504
 20
13.512035383497611
 30
0.0
 40
0.12845921512576372
100
AcDbArc
 50
-73.75838749784931
 51
-63.99940051724296
  0
ARC
  5
84b485fc
330
1F
  8
Layer
  6
Continuous
100
AcDbCircle
 10
12.481780777831958
 20
13.44699417524912
 30
0.0
 40
0.05609387132458109
100
AcDbArc
 50
-63.99940051727988
 51
-50.56436132521613
  0
ARC
  5
90e260ab
330
1F
  8
Layer
  6
Continuous
100
AcDbCircle
 10
12.509693767332571
 20
13.413055408036776
 30
0.0
 40
0.01215101180502924
100
AcDbArc
 50
-50.56436132518697
 51
27.51956815064781
  0
ARC
  5
9fc25ae4
330
1F
  8
Layer
  6
Continuous
100
AcDbCircle
 10
12.49933717657915
 20
13.407659611921531
 30
0.0
 40
0.02382892205263485
100
AcDbArc
 50
27.519567786800593
 51
69.70903930338753
  0
ARC
  5
24273742
330
1F
  8
Layer
  6
Continuous
100
AcDbCircle
 10
12.464210912577219
 20
13.312654923648866
 30
0.0
 40
0.12511932246906163
100
AcDbArc
 50
69.70903882959841
 51
80.76159143750843
  0
ARC
  5
098eb190
330
1F
  8
Layer
  6
Continuous
100
AcDbCircle
 10
12.441835113586968
 20
13.175086946392918
 30
0.0
 40
0.2644951623651662
100
AcDbArc
 50
80.76159151443018
 51
88.22874126894585
  0
ARC
  5
822524ce
330
1F
  8
Layer
  6
Continuous
100
AcDbCircle
 10
12.435134897650013
 20
12.958420791755389
 30
0.0
 40
0.4812648914765333
100
AcDbArc
 50
88.22874132289085
 51
95.42923674856384
  0
ARC
  5
222d4ca4
330
1F
  8
Layer
  6
Continuous
100
AcDbCircle
 10
12.423581938214117
 20
13.079976267058104
 30
0.0
 40
0.35916163825289343
100
AcDbArc
 50
95.42923679730491
 51
102.18982444168748
  0
ARC
  5
b29070b7
330
1F
  8
Layer
  6
Continuous
100
AcDbCircle
 10
12.36535062493281
 20
13.34953852183683
 30
0.0
 40
0.08338148115696266
100
AcDbArc
 50
102.18982426971345
 51
113.42033733799703
  0
ARC
  5
24839b4e
330
1F
  8
Layer
  6
Continuous
100
AcDbCircle
 10
12.406420572336506
 20
13.254723822813666
 30
0.0
 40
0.18670895925739472
100
AcDbArc
 50
113.42033734964154
 51
119.32531399883175
  0
ARC
  5
02616690
330
1F
  8
Layer
  6
Continuous
100
AcDbCircle
 10
11.697324317394374
 20
14.517011380405624
 30
0.0
 40
1.2611126377718873
100
AcDbArc
 50
-64.17047609747941
 51
-60.67468556757226
  0
ARC
  5
4322f19e
330
1F
  8
Layer
  6
Continuous
100
AcDbCircle
 10
11.990566262434404
 20
13.911208125883597
 30
0.0
 40
0.5880684924735726
100
AcDbArc
 50
-69.36901557291193
 51
-64.17047597834103
  0
ARC
  5
ea9cd792
330
1F
  8
Layer
  6
Continuous
100
AcDbCircle
 10
12.173306985879412
 20
13.425831453911785
 30
0.0
 40
0.06943115704578397
100
AcDbArc
 50
-84.53735806621474
 51
-69.36901521015992
  0
ARC
  5
d145b03c
330
1F
  8
Layer
  6
Continuous
100
AcDbCircle
 10
12.177277907245596
 20
13.384308083639038
 30
0.0
 40
0.02771834731898518
100
AcDbArc
 50
-98.94303080434625
 51
-84.53735599434255
  0
ARC
  5
51b0b557
330
1F
  8
Layer
  6
Continuous
100
AcDbCircle
 10
12.173976668615623
 20
13.36332990575501
 30
0.0
 40
0.006482007619642318
100
AcDbArc
 50
-177.79764971552694
 51
-98.94302939540867
  0
ARC
  5
87167486
330
1F
  8
Layer
  6
Continuous
100
AcDbCircle
 10
12.188537990302079
 20
13.363889893571097
 30
0.0
 40
0.021054093112481374
100
AcDbArc
 50
167.37552748154428
 51
-177.7976495212263
  0
ARC
  5
000571fa
330
1F
  8
Layer
  6
Continuous
100
AcDbCircle
 10
12.532180483458559
 20
13.28692256866469
 30
0.0
 40
0.3732104961581308
100
AcDbArc
 50
163.86320006379145
 51
167.37552748161133
  0
ARC
  5
ad1c3cf0
330
1F
  8
Layer
  6
Continuous
100
AcDbCircle
 10
12.604367228169927
 20
13.266036699390584
 30
0.0
 40
0.4483579887800351
100
AcDbArc
 50
161.70902541973655
 51
163.86320006375854
  0
ARC
  5
985c956b
330
1F
  8
Layer
  6
Continuous
100
AcDbCircle
 10
12.075986625004267
 20
13.440689545592223
 30
0.0
 40
0.10813970078213857
100
AcDbArc
 50
-18.29097458025892
 51
-9.351011560796705
  0
ARC
  5
6067d5a1
330
1F
  8
Layer
  6
Continuous
100
AcDbCircle
 10
11.968576168604248
 20
13.458376890779709
 30
0.0
 40
0.21699670939362833
100
AcDbArc
 50
-9.351011560797819
 51
-3.5599433380885888
  0
ARC
  5
944463ee
330
1F
  8
Layer
  6
Continuous
100
AcDbCircle
 10
11.616541360029922
 20
13.480277965465353
 30
0.0
 40
0.5697121237439909
100
AcDbArc
 50
-3.5599433381002776
 51
1.0030668080768115
  0
ARC
  5
b5b2c28c
330
1F
  8
Layer
  6
Continuous
100
AcDbCircle
 10
11.63554740056134
 20
13.480610734866803
 30
0.0
 40
0.550703170270524
100
AcDbArc
 50
1.0030667972953506
 51
15.772840433731929
  0
ARC
  5
f85a1275
330
1F
  8
Layer
  6
Continuous
100
AcDbCircle
 10
11.926622955294146
 20
13.562827809224753
 30
0.0
 40
0.24823891473114446
100
AcDbArc
 50
15.772840516958711
 51
28.89194181667079
  0
ARC
  5
98cd115a
330
1F
  8
Layer
  6
Continuous
100
AcDbCircle
 10
11.98604923919061
 20
13.595621977089015
 30
0.0
 40
0.18036446693484437
100
AcDbArc
 50
28.891941646799594
 51
35.36508262255041
  0
ARC
  5
761caa98
330
1F
  8
Layer
  6
Continuous
100
AcDbCircle
 10
12.114184914166321
 20
13.686565785661255
 30
0.0
 40
0.023235451412232214
100
AcDbArc
 50
35.36508198205938
 51
67.37957915473376
  0
ARC
  5
e3e69c5f
330
1F
  8
Layer
  6
Continuous
100
AcDbCircle
 10
12.118193972228083
 20
13.696187262321486
 30
0.0
 40
0.0128121429323918
100
AcDbArc
 50
67.37957872737697
 51
137.88754031637848
  0
ARC
  5
879746c4
330
1F
  8
Layer
  6
Continuous
100
AcDbCircle
 10
12.13182118250285
 20
13.683868749007065
 30
0.0
 40
0.03118186340250951
100
AcDbArc
 50
137.88754024228618
 51
157.9429109192313
  0
ARC
  5
446d3830
330
1F
  8
Layer
  6
Continuous
100
AcDbCircle
 10
12.15161065571504
 20
13.675850336957483
 30
0.0
 40
0.05253410407680054
100
AcDbArc
 50
157.94291109509766
 51
178.83435240787819
  0
ARC
  5
4cc1db59
330
1F
  8
Layer
  6
Continuous
100
AcDbCircle
 10
12.202835426648011
 20
13.674808057744276
 30
0.0
 40
0.1037694776295876
100
AcDbArc
 50
178.83435308371142
 51
-166.34190924646452
  0
ARC
  5
2aa8860a
330
1F
  8
Layer
  6
Continuous
100
AcDbCircle
 10
12.280855741121963
 20
13.693766910902987
 30
0.0
 40
0.18406024661150502
100
AcDbArc
 50
-166.341909404267
 51
-162.9158880079087
  0
ARC
  5
39934e17
330
1F
  8
Layer
  6
Continuous
100
AcDbCircle
 10
12.050238869140847
 20
13.62288989339541
 30
0.0
 40
0.057202459277995436
100
AcDbArc
 50
6.0447838950459305
 51
17.0841118709155
  0
ARC
  5
114e6db0
330
1F
  8
Layer
  6
Continuous
100
AcDbCircle
 10
11.990441931437944
 20
13.616557722666316
 30
0.0
 40
0.11733373354344713
100
AcDbArc
 50
-6.622711621660295
 51
6.044784012839165
  0
ARC
  5
ada6412b
330
1F
  8
Layer
  6
Continuous
100
AcDbCircle
 10
11.721648373634867
 20
13.647766177081198
 30
0.0
 40
0.38793296551464435
100
AcDbArc
 50
-17.873159230039388
 51
-6.622711554247157
  0
ARC
  5
04ab0297
330
1F
  8
Layer
  6
Continuous
100
AcDbCircle
 10
11.74077156542309
 20
13.641599444792487
 30
0.0
 40
0.3678400550413017
100
AcDbArc
 50
-24.182153634016018
 51
-17.873159057568646
  0
ARC
  5
f8002523
330
1F
  8
Layer
  6
Continuous
100
AcDbCircle
 10
11.951978038654019
 20
13.546758553058016
 30
0.0
 40
0.13631690483891523
100
AcDbArc
 50
-34.55477652052491
 51
-24.18215311120136
  0
ARC
  5
cd9230b8
330
1F
  8
Layer
  6
Continuous
100
AcDbCircle
 10
11.792741204672994
 20
13.656423284832732
 30
0.0
 40
0.3296630263193351
100
AcDbArc
 50
-42.04424354934022
 51
-34.554775950703494
  0
ARC
  5
7b65bf62
330
1F
  8
Layer
  6
Continuous
100
AcDbCircle
 10
10.261851940109244
 20
15.036984191757874
 30
0.0
 40
2.39111163302446
100
AcDbArc
 50
-43.64904904771207
 51
-42.04424333292545
  0
ARC
  5
375cbc7c
330
1F
  8
Layer
  6
Continuous
100
AcDbCircle
 10
13.744499436331875
 20
11.714814101838913
 30
0.0
 40
2.42195887230765
100
AcDbArc
 50
136.35095075004355
 51
137.64735629151946
  0
ARC
  5
045bf557
330
1F
  8
Layer
  6
Continuous
100
AcDbCircle
 10
12.191771405071684
 20
13.130297969257972
 30
0.0
 40
0.3208736960273616
100
AcDbArc
 50
137.64735596690718
 51
143.86518657295343
  0
ARC
  5
79b03241
330
1F
  8
Layer
  6
Continuous
100
AcDbCircle
 10
5.715197605064212
 20
17.85912724923337
 30
0.0
 40
7.698342883296081
100
AcDbArc
 50
-36.22884993526979
 51
-36.1348132970554
  0
ARC
  5
15a5bb74
330
1F
  8
Layer
  6
Continuous
100
AcDbCircle
 10
11.921996233677097
 20
13.311636210077102
 30
0.0
 40
0.003927767944071058
100
AcDbArc
 50
-108.39524189090343
 51
-36.22885100075382
  0
ARC
  5
d09c6a09
330
1F
  8
Layer
  6
Continuous
100
AcDbCircle
 10
11.923720881403826
 20
13.316822130099725
 30
0.0
 40
0.0093929464647003
100
AcDbArc
 50
-142.97077720636702
 51
-108.39524219315285
  0
ARC
  5
df967dd3
330
1F
  8
Layer
  6
Continuous
100
AcDbCircle
 10
11.993864461843062
 20
13.369735221491503
 30
0.0
 40
0.097256005354488
100
AcDbArc
 50
-153.5687082706889
 51
-142.97077714542854
  0
ARC
  5
a3102899
330
1F
  8
Layer
  6
Continuous
100
AcDbCircle
 10
12.122997965237786
 20
13.433925577909353
 30
0.0
 40
0.24146371512080253
100
AcDbArc
 50
-158.1498067824777
 51
-153.56870813122845
  0
ARC
  5
3e624668
330
1F
  8
Layer
  6
Continuous
100
AcDbCircle
 10
11.533351577474125
 20
13.197484448228119
 30
0.0
 40
0.3938214731274924
100
AcDbArc
 50
21.85019348465742
 51
33.09668127170004
  0
ARC
  5
58d269a3
330
1F
  8
Layer
  6
Continuous
100
AcDbCircle
 10
11.567822797652031
 20
13.219953108036234
 30
0.0
 40
0.3526741075480709
100
AcDbArc
 50
33.09668138722511
 51
48.15612581993793
  0
ARC
  5
25124e54
330
1F
  8
Layer
  6
Continuous
100
AcDbCircle
 10
11.658545990041064
 20
13.32126523765821
 30
0.0
 40
0.2166783530341983
100
AcDbArc
 50
48.1561258010044
 51
67.40393200831623
  0
ARC
  5
984551a5
330
1F
  8
Layer
  6
Continuous
100
AcDbCircle
 10
11.668578739221942
 20
13.345372031666495
 30
0.0
 40
0.19056717585881408
100
AcDbArc
 50
67.40393209439017
 51
80.96842875986847
  0
ARC
  5
35b15f69
330
1F
  8
Layer
  6
Continuous
100
AcDbCircle
 10
11.670492615630039
 20
13.357412826061752
 30
0.0
 40
0.1783752255400855
100
AcDbArc
 50
80.96842880809447
 51
94.99108235834062
  0
ARC
  5
4d1c1a57
330
1F
  8
Layer
  6
Continuous
100
AcDbCircle
 10
11.661065360908415
 20
13.465360343089362
 30
0.0
 40
0.07001684070525947
100
AcDbArc
 50
94.99108212496635
 51
111.20631825247615
  0
ARC
  5
715f75e7
330
1F
  8
Layer
  6
Continuous
100
AcDbCircle
 10
11.640395733043157
 20
13.518632400436905
 30
0.0
 40
0.01287538806247012
100
AcDbArc
 50
111.2063184697294
 51
149.60830096008726
  0
ARC
  5
3537231f
330
1F
  8
Layer
  6
Continuous
100
AcDbCircle
 10
11.63801468151453
 20
13.520028891598333
 30
0.0
 40
0.010115026864018314
100
AcDbArc
 50
149.60830190413918
 51
-169.05273400135977
  0
ARC
  5
b460519b
330
1F
  8
Layer
  6
Continuous
100
AcDbCircle
 10
11.662736113555585
 20
13.524810642858625
 30
0.0
 40
0.03529466838799266
100
AcDbArc
 50
-169.0527335242611
 51
-147.2682887955688
  0
ARC
  5
a0334067
330
1F
  8
Layer
  6
Continuous
100
AcDbCircle
 10
11.699451239937238
 20
13.548410041181047
 30
0.0
 40
0.07894019629636934
100
AcDbArc
 50
-147.2682886320802
 51
-136.74689767402626
  0
ARC
  5
a95a3d97
330
1F
  8
Layer
  6
Continuous
100
AcDbCircle
 10
11.906739290569874
 20
13.743428327541451
 30
0.0
 40
0.36354600781473445
100
AcDbArc
 50
-136.74689739355253
 51
-131.84951064721605
  0
ARC
  5
71d3b144
330
1F
  8
Layer
  6
Continuous
100
AcDbCircle
 10
12.481793917619349
 20
14.385474492772993
 30
0.0
 40
1.2254689175807638
100
AcDbArc
 50
-131.8495105738627
 51
-129.97207121839347
  0
ARC
  5
cfb1e7aa
330
1F
  8
Layer
  6
Continuous
100
AcDbCircle
 10
11.609059957921618
 20
13.344360445644222
 30
0.0
 40
0.13305345011824798
100
AcDbArc
 50
40.705088675733386
 51
50.027928354804104
  0
ARC
  5
d260d0d3
330
1F
  8
Layer
  6
Continuous
100
AcDbCircle
 10
11.617166963118857
 20
13.351334824514284
 30
0.0
 40
0.12235926974333235
100
AcDbArc
 50
34.405100158289216
 51
40.705088136494254
  0
ARC
  5
3d5747ae
330
1F
  8
Layer
  6
Continuous
100
AcDbCircle
 10
11.418446978804274
 20
13.21524242972803
 30
0.0
 40
0.3632135246043279
100
AcDbArc
 50
28.43347682089356
 51
34.40509989928842
  0
ARC
  5
6f789d31
330
1F
  8
Layer
  6
Continuous
100
AcDbCircle
 10
11.435923114656303
 20
13.224704941254764
 30
0.0
 40
0.34334006369003045
100
AcDbArc
 50
-6.660269113702107
 51
28.43347685626206
  0
ARC
  5
c7315771
330
1F
  8
Layer
  6
Continuous
100
AcDbCircle
 10
11.466426834544267
 20
13.221143020621568
 30
0.0
 40
0.31262908510580795
100
AcDbArc
 50
-26.75956866668382
 51
-6.660269186228572
  0
ARC
  5
d418ecb1
330
1F
  8
Layer
  6
Continuous
100
AcDbCircle
 10
11.574648888728648
 20
13.166571948291349
 30
0.0
 40
0.1914267132348031
100
AcDbArc
 50
-30.60573087022153
 51
-26.759568886482082
  0
ARC
  5
8cff4911
330
1F
  8
Layer
  6
Continuous
100
AcDbCircle
 10
11.652627252234293
 20
13.120445142573892
 30
0.0
 40
0.10082700362867701
100
AcDbArc
 50
-35.906193581522786
 51
-30.605729914817395
  0
ARC
  5
f9847046
330
1F
  8
Layer
  6
Continuous
100
AcDbCircle
 10
12.341579627654445
 20
12.621613317155829
 30
0.0
 40
0.7497543067978946
100
AcDbArc
 50
144.09380827972626
 51
145.84393225846358
  0
ARC
  5
ede9a29f
330
1F
  8
Layer
  6
Continuous
100
AcDbCircle
 10
11.757710244325546
 20
13.017756425326397
 30
0.0
 40
0.04418161816836347
100
AcDbArc
 50
145.84393337538017
 51
174.93455301129677
  0
ARC
  5
b7632d48
330
1F
  8
Layer
  6
Continuous
100
AcDbCircle
 10
11.749771157804862
 20
13.018460144738393
 30
0.0
 40
0.03621140388054702
100
AcDbArc
 50
174.93455374924508
 51
-150.04853635042312
  0
ARC
  5
4583f403
330
1F
  8
Layer
  6
Continuous
100
AcDbCircle
 10
11.788430170307981
 20
13.04073629233167
 30
0.0
 40
0.08082918059918068
100
AcDbArc
 50
-150.04853632917192
 51
-126.8149731845724
  0
ARC
  5
80227c41
330
1F
  8
Layer
  6
Continuous
100
AcDbCircle
 10
11.757575081099054
 20
12.999513906560553
 30
0.0
 40
0.029338194798230004
100
AcDbArc
 50
-126.81497355705095
 51
-105.40263665928701
  0
ARC
  5
d9c8433e
330
1F
  8
Layer
  6
Continuous
100
AcDbCircle
 10
11.743192919847386
 20
12.947309182443263
 30
0.0
 40
0.024811410762949584
100
AcDbArc
 50
49.21851410236755
 51
74.59736371668322
  0
ARC
  5
341e3b9f
330
1F
  8
Layer
  6
Continuous
100
AcDbCircle
 10
11.749658853178818
 20
12.954804933225532
 30
0.0
 40
0.014912189902881047
100
AcDbArc
 50
-5.568395946366327
 51
49.21851530873366
  0
ARC
  5
899614c2
330
1F
  8
Layer
  6
Continuous
100
AcDbCircle
 10
11.6885790513278
 20
12.960759847218256
 30
0.0
 40
0.07628158940149504
100
AcDbArc
 50
-19.99094774421775
 51
-5.568396268026467
  0
ARC
  5
ed5d50df
330
1F
  8
Layer
  6
Continuous
100
AcDbCircle
 10
11.612846156011253
 20
12.988310819414878
 30
0.0
 40
0.156870220746159
100
AcDbArc
 50
-33.78661859656794
 51
-19.990948434620762
  0
ARC
  5
b39f524a
330
1F
  8
Layer
  6
Continuous
100
AcDbCircle
 10
11.725810262066371
 20
12.912726142238924
 30
0.0
 40
0.020951374809970422
100
AcDbArc
 50
-64.88032513418136
 51
-33.78661934653262
  0
ARC
  5
1d82f010
330
1F
  8
Layer
  6
Continuous
100
AcDbCircle
 10
11.730987745338966
 20
12.901683272102257
 30
0.0
 40
0.008755010028066612
100
AcDbArc
 50
-130.31408487622022
 51
-64.88032544519031
  0
ARC
  5
495a8ef5
330
1F
  8
Layer
  6
Continuous
100
AcDbCircle
 10
11.754005797714735
 20
12.928811706078882
 30
0.0
 40
0.04433284955209658
100
AcDbArc
 50
-147.42615371927656
 51
-130.31408451184794
  0
ARC
  5
05f7b7f2
330
1F
  8
Layer
  6
Continuous
100
AcDbCircle
 10
12.004064455202275
 20
13.08857010887342
 30
0.0
 40
0.3410685559440533
100
AcDbArc
 50
-151.70870407267097
 51
-147.4261536040497
  0
ARC
  5
c00fefb2
330
1F
  8
Layer
  6
Continuous
100
AcDbCircle
 10
11.675336239143178
 20
12.911632613359043
 30
0.0
 40
0.032253178424973314
100
AcDbArc
 50
28.29129529004894
 51
52.89788478674134
  0
ARC
  5
58403dc8
330
1F
  8
Layer
  6
Continuous
100
AcDbCircle
 10
11.686279080551156
 20
12.926100533388928
 30
0.0
 40
0.014112988567331057
100
AcDbArc
 50
52.897884077522576
 51
84.23933453870079
  0
ARC
  5
8e3c942c
330
1F
  8
Layer
  6
Continuous
100
AcDbCircle
 10
11.68643785206622
 20
12.927674359015876
 30
0.0
 40
0.012531174577621965
100
AcDbArc
 50
84.23933302811547
 51
117.55433609376759
  0
ARC
  5
d97fce50
330
1F
  8
Layer
  6
Continuous
100
AcDbCircle
 10
11.692768883172576
 20
12.915540669790321
 30
0.0
 40
0.026217239355050426
100
AcDbArc
 50
117.5543358999302
 51
142.42556462595834
  0
ARC
  5
85ed00e1
330
1F
  8
Layer
  6
Continuous
100
AcDbCircle
 10
11.794895854832681
 20
12.836964885480413
 30
0.0
 40
0.1550740289331768
100
AcDbArc
 50
142.42556592876267
 51
152.58513326964493
  0
ARC
  5
79c9b8a5
330
1F
  8
Layer
  6
Continuous
100
AcDbCircle
 10
12.02406123710358
 20
12.718101380094325
 30
0.0
 40
0.4132315493427819
100
AcDbArc
 50
152.5851326866291
 51
158.2508971944849
  0
ARC
  5
c960f5cc
330
1F
  8
Layer
  6
Continuous
100
AcDbCircle
 10
12.13095493014879
 20
12.675457059438761
 30
0.0
 40
0.5283176027854878
100
AcDbArc
 50
158.25089702616236
 51
167.23616342994603
  0
ARC
  5
48b67388
330
1F
  8
Layer
  6
Continuous
100
AcDbCircle
 10
12.033919870055849
 20
12.697438486297107
 30
0.0
 40
0.4288239546768321
100
AcDbArc
 50
167.23616341939118
 51
-178.1473471446435
  0
ARC
  5
e98beb9a
330
1F
  8
Layer
  6
Continuous
100
AcDbCircle
 10
11.856118642266022
 20
12.691687298098838
 30
0.0
 40
0.25092973675713137
100
AcDbArc
 50
-178.14734717776858
 51
-159.00256238277487
  0
ARC
  5
95f9efb2
330
1F
  8
Layer
  6
Continuous
100
AcDbCircle
 10
11.83344562632267
 20
12.682985106296268
 30
0.0
 40
0.2266440662056267
100
AcDbArc
 50
-159.0025623334853
 51
-147.71583346097194
  0
ARC
  5
77f1fb73
330
1F
  8
Layer
  6
Continuous
100
AcDbCircle
 10
11.739583903637447
 20
12.623684486728884
 30
0.0
 40
0.11561890479384113
100
AcDbArc
 50
-147.71583332907446
 51
-138.4261725502703
  0
ARC
  5
e48181f1
330
1F
  8
Layer
  6
Continuous
100
AcDbCircle
 10
11.681268662455881
 20
12.57195740909325
 30
0.0
 40
0.037667907912548544
100
AcDbArc
 50
-138.42617324906874
 51
-121.22988898455017
  0
ARC
  5
4c41515d
330
1F
  8
Layer
  6
Continuous
100
AcDbCircle
 10
11.668362335347243
 20
12.550671597530588
 30
0.0
 40
0.012774956032221441
100
AcDbArc
 50
-121.22988922467395
 51
-51.449870111124795
  0
ARC
  5
04d0a2db
330
1F
  8
Layer
  6
Continuous
100
AcDbCircle
 10
11.659165169868292
 20
12.562213276924856
 30
0.0
 40
0.027532944244959088
100
AcDbArc
 50
-51.44986981847191
 51
-26.199421314663887
  0
ARC
  5
3ff0b942
330
1F
  8
Layer
  6
Continuous
100
AcDbCircle
 10
11.601212366148484
 20
12.590728864576995
 30
0.0
 40
0.09212138127615993
100
AcDbArc
 50
-26.19942131466094
 51
-12.473738796806902
  0
ARC
  5
492547c8
330
1F
  8
Layer
  6
Continuous
100
AcDbCircle
 10
11.38398940059276
 20
12.638781590935078
 30
0.0
 40
0.31459583211325776
100
AcDbArc
 50
-12.473738796805868
 51
-9.626622607902066
  0
ARC
  5
878895ef
330
1F
  8
Layer
  6
Continuous
100
AcDbCircle
 10
11.819735376918304
 20
12.564872396840325
 30
0.0
 40
0.127373765094104
100
AcDbArc
 50
163.33769250465423
 51
170.37337739209136
  0
ARC
  5
e0f220f9
330
1F
  8
Layer
  6
Continuous
100
AcDbCircle
 10
11.913561914246541
 20
12.53679035366538
 30
0.0
 40
0.22531262487859716
100
AcDbArc
 50
150.7537879854055
 51
163.3376925046724
  0
ARC
  5
215825b5
330
1F
  8
Layer
  6
Continuous
100
AcDbCircle
 10
11.874783970654807
 20
12.558503677878038
 30
0.0
 40
0.1808694324013695
100
AcDbArc
 50
140.20475937642618
 51
150.75378798540356
  0
ARC
  5
9cc08b4f
330
1F
  8
Layer
  6
Continuous
100
AcDbCircle
 10
11.794798099915697
 20
12.625134137387525
 30
0.0
 40
0.0767668020199102
100
AcDbArc
 50
119.92189704262698
 51
140.2047593764036
  0
ARC
  5
8a8cead7
330
1F
  8
Layer
  6
Continuous
100
AcDbCircle
 10
11.766450667104444
 20
12.674388264821495
 30
0.0
 40
0.019937707215660638
100
AcDbArc
 50
79.4965171239485
 51
119.92189704263187
  0
ARC
  5
cd578b3b
330
1F
  8
Layer
  6
Continuous
100
AcDbCircle
 10
11.766577730152589
 20
12.675073603513761
 30
0.0
 40
0.01924068918051311
100
AcDbArc
 50
38.656353041633146
 51
79.49651694183024
  0
ARC
  5
c8012b3d
330
1F
  8
Layer
  6
Continuous
100
AcDbCircle
 10
11.847453378069188
 20
12.739766123090455
 30
0.0
 40
0.08432567850277768
100
AcDbArc
 50
-141.3436472484635
 51
-132.21145916451053
  0
ARC
  5
55f211e2
330
1F
  8
Layer
  6
Continuous
100
AcDbCircle
 10
11.825126719643885
 20
12.71515314168538
 30
0.0
 40
0.05109499193017399
100
AcDbArc
 50
-132.21146066206833
 51
-118.805995820073
  0
ARC
  5
8f02ef64
330
1F
  8
Layer
  6
Continuous
100
AcDbCircle
 10
11.806822167646143
 20
12.681865536297591
 30
0.0
 40
0.013106555580526948
100
AcDbArc
 50
-118.80599746000861
 51
-51.55797719893505
  0
ARC
  5
ad42c140
330
1F
  8
Layer
  6
Continuous
100
AcDbCircle
 10
11.80251978077882
 20
12.687285626754527
 30
0.0
 40
0.020026664923409983
100
AcDbArc
 50
-51.55797770231095
 51
-26.24866076868856
  0
ARC
  5
a63f921c
330
1F
  8
Layer
  6
Continuous
100
AcDbCircle
 10
11.721660424053503
 20
12.727158699060992
 30
0.0
 40
0.11018262681827651
100
AcDbArc
 50
-26.248660768645085
 51
-15.530384876251098
  0
ARC
  5
e28cf2f2
330
1F
  8
Layer
  6
Continuous
100
AcDbCircle
 10
11.467584740323073
 20
12.797765246738637
 30
0.0
 40
0.373886509303995
100
AcDbArc
 50
-15.530384876288926
 51
-10.50913331348727
  0
ARC
  5
cd70b9aa
330
1F
  8
Layer
  6
Continuous
100
AcDbCircle
 10
11.914650789577287
 20
12.714832736785048
 30
0.0
 40
0.08080663293918171
100
AcDbArc
 50
156.95714390372262
 51
169.49086668653348
  0
ARC
  5
da663c9a
330
1F
  8
Layer
  6
Continuous
100
AcDbCircle
 10
11.868630837306615
 20
12.734407684597702
 30
0.0
 40
0.030796488079732367
100
AcDbArc
 50
135.28044232066904
 51
156.95714390370446
  0
ARC
  5
95e21525
330
1F
  8
Layer
  6
Continuous
100
AcDbCircle
 10
11.883759903267444
 20
12.719426001148232
 30
0.0
 40
0.05208825822284777
100
AcDbArc
 50
113.57563402280469
 51
135.2804423206356
  0
ARC
  5
bdaedc79
330
1F
  8
Layer
  6
Continuous
100
AcDbCircle
 10
11.918825323997783
 20
12.639071295117821
 30
0.0
 40
0.13976073116749121
100
AcDbArc
 50
106.75944443634943
 51
113.57563402282022
  0
ARC
  5
8c8033be
330
1F
  8
Layer
  6
Continuous
100
AcDbCircle
 10
11.87195505330889
 20
12.794711185829744
 30
0.0
 40
0.022783410084259336
100
AcDbArc
 50
-73.24055556367774
 51
-50.57015666612497
  0
ARC
  5
45b9a7e6
330
1F
  8
Layer
  6
Continuous
100
AcDbCircle
 10
11.874051489634276
 20
12.792161651123351
 30
0.0
 40
0.019482626467373462
100
AcDbArc
 50
-50.57015666609769
 51
-7.383855276549335
  0
ARC
  5
1aed4d6c
330
1F
  8
Layer
  6
Continuous
100
AcDbCircle
 10
11.80238649375537
 20
12.801448775453391
 30
0.0
 40
0.09174687982022474
100
AcDbArc
 50
-7.383855276621062
 51
4.7709756792368925
  0
ARC
  5
6f26c475
330
1F
  8
Layer
  6
Continuous
100
AcDbCircle
 10
11.57438308337987
 20
12.78241910742776
 30
0.0
 40
0.32054304108178266
100
AcDbArc
 50
4.770974947487304
 51
6.896538188216469
  0
ARC
  5
59e5c5eb
330
1F
  8
Layer
  6
Continuous
100
AcDbCircle
 10
11.913912641286602
 20
12.823485883469369
 30
0.0
 40
0.021461053611239875
100
AcDbArc
 50
165.35742807230974
 51
-173.1034630427664
  0
ARC
  5
ae2bc28a
330
1F
  8
Layer
  6
Continuous
100
AcDbCircle
 10
11.93441617875711
 20
12.81812884044864
 30
0.0
 40
0.04265286709499706
100
AcDbArc
 50
141.21080524211402
 51
165.3574278310431
  0
ARC
  5
1e374ab2
330
1F
  8
Layer
  6
Continuous
100
AcDbCircle
 10
11.927546352671008
 20
12.823650189682143
 30
0.0
 40
0.03383925218330668
100
AcDbArc
 50
120.8083436586088
 51
141.21080524209736
  0
ARC
  5
b998448a
330
1F
  8
Layer
  6
Continuous
100
AcDbCircle
 10
11.919281552583936
 20
12.83750993149992
 30
0.0
 40
0.01770235769475327
100
AcDbArc
 50
102.47642742201872
 51
120.80834365855853
  0
ARC
  5
673c42d8
330
1F
  8
Layer
  6
Continuous
100
AcDbCircle
 10
11.918276848192388
 20
12.842050700218195
 30
0.0
 40
0.013051765101625392
100
AcDbArc
 50
81.09395318256179
 51
102.47642742202517
  0
ARC
  5
26b9c7cf
330
1F
  8
Layer
  6
Continuous
100
AcDbCircle
 10
11.968535274071186
 20
13.162772864474052
 30
0.0
 40
0.31158436353592367
100
AcDbArc
 50
-98.90604620623564
 51
-97.12605824323994
  0
ARC
  5
9b4c42de
330
1F
  8
Layer
  6
Continuous
100
AcDbCircle
 10
11.931646845419115
 20
12.867709031385745
 30
0.0
 40
0.014223603237622172
100
AcDbArc
 50
-97.12605791526114
 51
-59.58342933187243
  0
ARC
  5
563253be
330
1F
  8
Layer
  6
Continuous
100
AcDbCircle
 10
11.932293056579907
 20
12.866608320617525
 30
0.0
 40
0.012947220434694614
100
AcDbArc
 50
-59.58342933183367
 51
-11.399954976676195
  0
ARC
  5
9c527880
330
1F
  8
Layer
  6
Continuous
100
AcDbCircle
 10
11.862210766060226
 20
12.880739331842815
 30
0.0
 40
0.08443996777828362
100
AcDbArc
 50
-11.399954976666642
 51
-0.5684083324643711
  0
ARC
  5
91d9bae5
330
1F
  8
Layer
  6
Continuous
100
AcDbCircle
 10
8.666342304470305
 20
12.912445294742904
 30
0.0
 40
3.280465701696663
100
AcDbArc
 50
-0.5684083324772102
 51
-0.09136273751272055
  0
ARC
  5
fd6e9459
330
1F
  8
Layer
  6
Continuous
100
AcDbCircle
 10
12.010092127973
 20
12.90711341168003
 30
0.0
 40
0.0632883728655282
100
AcDbArc
 50
159.68206476824878
 51
179.90863726246369
  0
ARC
  5
8c01d5f2
330
1F
  8
Layer
  6
Continuous
100
AcDbCircle
 10
11.993782192330311
 20
12.913152444830132
 30
0.0
 40
0.04589630794911716
100
AcDbArc
 50
147.34383060543607
 51
159.68206476824545
  0
ARC
  5
c1b1cb10
330
1F
  8
Layer
  6
Continuous
100
AcDbCircle
 10
12.117042492571096
 20
12.834153828494513
 30
0.0
 40
0.19229946023208833
100
AcDbArc
 50
137.79303594281967
 51
147.34383060543422
  0
ARC
  5
84a6a90a
330
1F
  8
Layer
  6
Continuous
100
AcDbCircle
 10
12.0267812985386
 20
12.916017674605325
 30
0.0
 40
0.07044392097257596
100
AcDbArc
 50
124.80123010440835
 51
137.7930359428294
  0
ARC
  5
6af533c8
330
1F
  8
Layer
  6
Continuous
100
AcDbCircle
 10
11.99151867627515
 20
12.966751614602785
 30
0.0
 40
0.008658929295302632
100
AcDbArc
 50
87.15074064011216
 51
124.80123010441662
  0
ARC
  5
7f20fb08
330
1F
  8
Layer
  6
Continuous
100
AcDbCircle
 10
11.991681007853124
 20
12.970013249800662
 30
0.0
 40
0.005393256974749461
100
AcDbArc
 50
35.990014918223075
 51
87.15074091090796
  0
ARC
  5
1d38ded5
330
1F
  8
Layer
  6
Continuous
100
AcDbCircle
 10
11.977521795815678
 20
12.959729749370998
 30
0.0
 40
0.022892790300190723
100
AcDbArc
 50
11.795354729944755
 51
35.99001561375162
  0
ARC
  5
409b8114
330
1F
  8
Layer
  6
Continuous
100
AcDbCircle
 10
11.909923554529271
 20
12.945613459674345
 30
0.0
 40
0.09194922996960192
100
AcDbArc
 50
0.4318883362195472
 51
11.795355320942585
  0
ARC
  5
4d417fc8
330
1F
  8
Layer
  6
Continuous
100
AcDbCircle
 10
0.41293318122879086
 20
12.858948965347631
 30
0.0
 40
11.589266237791076
100
AcDbArc
 50
0.19584940853266775
 51
0.43188830760329516
  0
ARC
  5
9c979fbc
330
1F
  8
Layer
  6
Continuous
100
AcDbCircle
 10
13.207716734701284
 20
12.90268448250543
 30
0.0
 40
1.2055920644986133
100
AcDbArc
 50
-179.80415059392234
 51
-177.7754346393807
  0
ARC
  5
c698644a
330
1F
  8
Layer
  6
Continuous
100
AcDbCircle
 10
11.854149670576293
 20
12.850104477741564
 30
0.0
 40
0.1489958632435914
100
AcDbArc
 50
-6.624309352217911
 51
2.2245654172281424
  0
ARC
  5
b6277c6e
330
1F
  8
Layer
  6
Continuous
100
AcDbCircle
 10
11.943426077806123
 20
12.839736458140491
 30
0.0
 40
0.05911943297227544
100
AcDbArc
 50
-21.63759293451354
 51
-6.624309507671186
  0
ARC
  5
abe3576a
330
1F
  8
Layer
  6
Continuous
100
AcDbCircle
 10
11.986132838310636
 20
12.822795233924273
 30
0.0
 40
0.013175200790922744
100
AcDbArc
 50
-73.73735850614521
 51
-21.637593537125188
  0
ARC
  5
1c702a28
330
1F
  8
Layer
  6
Continuous
100
AcDbCircle
 10
11.97610423008023
 20
12.85717359742007
 30
0.0
 40
0.04898644008374727
100
AcDbArc
 50
-81.6651964390271
 51
-73.7373595905803
  0
ARC
  5
ff9e20f6
330
1F
  8
Layer
  6
Continuous
100
AcDbCircle
 10
11.985148575393437
 20
12.795439405157135
 30
0.0
 40
0.013406754068350329
100
AcDbArc
 50
98.33480163867642
 51
127.59588326392081
  0
ARC
  5
4430ae7d
330
1F
  8
Layer
  6
Continuous
100
AcDbCircle
 10
11.988240299066456
 20
12.791424123281784
 30
0.0
 40
0.018474420573640366
100
AcDbArc
 50
127.59588308769474
 51
166.85266510325744
  0
ARC
  5
d4889be7
330
1F
  8
Layer
  6
Continuous
100
AcDbCircle
 10
11.995544274687374
 20
12.789718072279925
 30
0.0
 40
0.02597499854416301
100
AcDbArc
 50
166.85266410950766
 51
-160.23322630046533
  0
ARC
  5
5d8d0b63
330
1F
  8
Layer
  6
Continuous
100
AcDbCircle
 10
12.0353523591853
 20
12.804023792121454
 30
0.0
 40
0.06827555659696431
100
AcDbArc
 50
-160.23322682222832
 51
-144.5566852245889
  0
ARC
  5
df6901ec
330
1F
  8
Layer
  6
Continuous
100
AcDbCircle
 10
11.884026725945974
 20
12.696309993474484
 30
0.0
 40
0.1174708018982779
100
AcDbArc
 50
26.35076042790444
 51
35.44331453253486
  0
ARC
  5
ef1a7c7f
330
1F
  8
Layer
  6
Continuous
100
AcDbCircle
 10
11.95545017770021
 20
12.731688429109862
 30
0.0
 40
0.0377654497034828
100
AcDbArc
 50
10.857248779258422
 51
26.35076076992002
  0
ARC
  5
eb815a98
330
1F
  8
Layer
  6
Continuous
100
AcDbCircle
 10
11.978834559572928
 20
12.736173458500534
 30
0.0
 40
0.013954846934878536
100
AcDbArc
 50
-47.492177484641466
 51
10.857249162073403
  0
ARC
  5
508ad6ad
330
1F
  8
Layer
  6
Continuous
100
AcDbCircle
 10
11.969562188541763
 20
12.74628970272277
 30
0.0
 40
0.027677647731489768
100
AcDbArc
 50
-75.70225292260615
 51
-47.49217762968009
  0
ARC
  5
8625de30
330
1F
  8
Layer
  6
Continuous
100
AcDbCircle
 10
11.984983738700135
 20
12.685778609108933
 30
0.0
 40
0.03476766161700772
100
AcDbArc
 50
104.29774663507051
 51
126.67078880496217
  0
ARC
  5
0a1be736
330
1F
  8
Layer
  6
Continuous
100
AcDbCircle
 10
11.973754908919016
 20
12.70085927979859
 30
0.0
 40
0.01596571366730701
100
AcDbArc
 50
126.67078873328194
 51
171.21368943194585
  0
ARC
  5
d9380cc2
330
1F
  8
Layer
  6
Continuous
100
AcDbCircle
 10
11.975731892291888
 20
12.700553710534447
 30
0.0
 40
0.01796617257260921
100
AcDbArc
 50
171.21369030682
 51
-166.62942677928197
  0
ARC
  5
14ac42fa
330
1F
  8
Layer
  6
Continuous
100
AcDbCircle
 10
12.010454399252529
 20
12.708806936173193
 30
0.0
 40
0.053656062220461126
100
AcDbArc
 50
-166.62942598305716
 51
-152.96387577608866
  0
ARC
  5
ece4f374
330
1F
  8
Layer
  6
Continuous
100
AcDbCircle
 10
11.831183884157566
 20
12.617321629496562
 30
0.0
 40
0.14760863642321673
100
AcDbArc
 50
17.82347076450065
 51
27.03612410091408
  0
ARC
  5
eda84240
330
1F
  8
Layer
  6
Continuous
100
AcDbCircle
 10
11.9222027013215
 20
12.646585708650864
 30
0.0
 40
0.05200104568550028
100
AcDbArc
 50
-4.822140102190643
 51
17.823470820567177
  0
ARC
  5
3bc2dfc6
330
1F
  8
Layer
  6
Continuous
100
AcDbCircle
 10
11.93087997606666
 20
12.645853680393902
 30
0.0
 40
0.043292948168132984
100
AcDbArc
 50
-29.6741105340082
 51
-4.822139663602439
  0
ARC
  5
c72dd305
330
1F
  8
Layer
  6
Continuous
100
AcDbCircle
 10
11.911272787581046
 20
12.657025685185536
 30
0.0
 40
0.06585963891743514
100
AcDbArc
 50
-38.09955257528347
 51
-29.674111270435784
  0
ARC
  5
a19645db
330
1F
  8
Layer
  6
Continuous
100
AcDbCircle
 10
11.926321839883416
 20
12.645225909711375
 30
0.0
 40
0.0467361278266318
100
AcDbArc
 50
-48.10500321615156
 51
-38.09955165506288
  0
ARC
  5
e6171d1d
330
1F
  8
Layer
  6
Continuous
100
AcDbCircle
 10
11.954851785711744
 20
12.61342317888138
 30
0.0
 40
0.004011761275302146
100
AcDbArc
 50
-125.92893937436348
 51
-48.105001713328555
  0
ARC
  5
9c7858e8
330
1F
  8
Layer
  6
Continuous
100
AcDbCircle
 10
11.9719251152814
 20
12.636983993921971
 30
0.0
 40
0.03310833475004248
100
AcDbArc
 50
-140.1195374699749
 51
-125.92894100017337
  0
ARC
  5
5e97f52a
330
1F
  8
Layer
  6
Continuous
100
AcDbCircle
 10
9.076079519929849
 20
10.21735866358671
 30
0.0
 40
3.7405514871359933
100
AcDbArc
 50
39.880461548113274
 51
40.099201161383526
  0
ARC
  5
04a0eef7
330
1F
  8
Layer
  6
Continuous
100
AcDbCircle
 10
11.92264039854806
 20
12.614317670253252
 30
0.0
 40
0.019218215938762762
100
AcDbArc
 50
40.09920105907951
 51
77.77348988370933
  0
ARC
  5
d6a4d38c
330
1F
  8
Layer
  6
Continuous
100
AcDbCircle
 10
11.923508586182983
 20
12.618324221078316
 30
0.0
 40
0.015118679467007129
100
AcDbArc
 50
77.77349005955271
 51
127.90546434245051
  0
ARC
  5
affbcbfb
330
1F
  8
Layer
  6
Continuous
100
AcDbCircle
 10
11.951879556609992
 20
12.58188727571886
 30
0.0
 40
0.061298360605990865
100
AcDbArc
 50
127.90546506453384
 51
143.38095745135175
  0
ARC
  5
ed860a02
330
1F
  8
Layer
  6
Continuous
100
AcDbCircle
 10
12.005983790823722
 20
12.54167801922656
 30
0.0
 40
0.12870794796207494
100
AcDbArc
 50
143.38095764157399
 51
151.43143773220447
  0
ARC
  5
545430e3
330
1F
  8
Layer
  6
Continuous
100
AcDbCircle
 10
12.129975461602111
 20
12.47416379333795
 30
0.0
 40
0.2698890554791737
100
AcDbArc
 50
151.43143717881821
 51
160.82212392147167
  0
ARC
  5
a3fa605e
330
1F
  8
Layer
  6
Continuous
100
AcDbCircle
 10
12.17226294898026
 20
12.459456040579573
 30
0.0
 40
0.3146612519850271
100
AcDbArc
 50
160.8221242646783
 51
166.91992763029643
  0
ARC
  5
dd06dba9
330
1F
  8
Layer
  6
Continuous
100
AcDbCircle
 10
11.600366154558603
 20
12.592330929823271
 30
0.0
 40
0.27246878443049416
100
AcDbArc
 50
-20.12324604264204
 51
-13.080071959041492
  0
ARC
  5
410fc487
330
1F
  8
Layer
  6
Continuous
100
AcDbCircle
 10
11.711179952081029
 20
12.55172785170904
 30
0.0
 40
0.1544505329873756
100
AcDbArc
 50
-30.941180020401994
 51
-20.12324637634729
  0
ARC
  5
dc2b634f
330
1F
  8
Layer
  6
Continuous
100
AcDbCircle
 10
11.782028126042754
 20
12.509256905459253
 30
0.0
 40
0.07184759702827581
100
AcDbArc
 50
-64.91491223583326
 51
-30.941180357709943
  0
ARC
  5
0dc282fd
330
1F
  8
Layer
  6
Continuous
100
AcDbCircle
 10
11.713984633406616
 20
12.654612681393125
 30
0.0
 40
0.23234126820400175
100
AcDbArc
 50
-68.45048450911514
 51
-64.91491249042971
  0
ARC
  5
52ded9ec
330
1F
  8
Layer
  6
Continuous
100
AcDbCircle
 10
11.944917192340156
 20
12.06983874933235
 30
0.0
 40
0.3963799724053909
100
AcDbArc
 50
111.5495155368377
 51
119.84362566556533
  0
ARC
  5
8ac285fb
330
1F
  8
Layer
  6
Continuous
100
AcDbCircle
 10
11.95700899090256
 20
12.048762505323312
 30
0.0
 40
0.4206785249137653
100
AcDbArc
 50
119.84362558346608
 51
127.71717041888013
  0
ARC
  5
90554280
330
1F
  8
Layer
  6
Continuous
100
AcDbCircle
 10
12.093521502956579
 20
11.872245303467047
 30
0.0
 40
0.6438241914602248
100
AcDbArc
 50
127.71717021594264
 51
134.07989639964455
  0
ARC
  5
44815262
330
1F
  8
Layer
  6
Continuous
100
AcDbCircle
 10
11.185468321419213
 20
12.809941617294085
 30
0.0
 40
0.661486100181172
100
AcDbArc
 50
-47.11003586566142
 51
-45.92010318660273
  0
ARC
  5
30691601
330
1F
  8
Layer
  6
Continuous
100
AcDbCircle
 10
11.628580728253425
 20
12.332928347336019
 30
0.0
 40
0.010417544031746266
100
AcDbArc
 50
-78.23852090656474
 51
-47.11003482690922
  0
ARC
  5
216fe89e
330
1F
  8
Layer
  6
Continuous
100
AcDbCircle
 10
11.625056183585542
 20
12.349856234133055
 30
0.0
 40
0.02770845975443716
100
AcDbArc
 50
-102.39926977087174
 51
-78.2385192745032
  0
ARC
  5
bffd5b1d
330
1F
  8
Layer
  6
Continuous
100
AcDbCircle
 10
11.658466340591316
 20
12.501823584822262
 30
0.0
 40
0.18330509939246795
100
AcDbArc
 50
-113.90213678412344
 51
-102.39926928869629
  0
ARC
  5
484ab00f
330
1F
  8
Layer
  6
Continuous
100
AcDbCircle
 10
11.715339089669204
 20
12.63015131584656
 30
0.0
 40
0.32367075095124676
100
AcDbArc
 50
-122.2529596537762
 51
-113.90213686011992
  0
ARC
  5
e8f15684
330
1F
  8
Layer
  6
Continuous
100
AcDbCircle
 10
11.761954403991613
 20
12.704023661692176
 30
0.0
 40
0.4110212575903703
100
AcDbArc
 50
-135.55049345175425
 51
-122.25295965658394
  0
ARC
  5
1bbcea81
330
1F
  8
Layer
  6
Continuous
100
AcDbCircle
 10
11.71082019459077
 20
12.65386271945425
 30
0.0
 40
0.3393914628311645
100
AcDbArc
 50
-145.56522876828308
 51
-135.55049331177005
  0
ARC
  5
08fddee6
330
1F
  8
Layer
  6
Continuous
100
AcDbCircle
 10
11.670484443035921
 20
12.626208285093796
 30
0.0
 40
0.2904860378428144
100
AcDbArc
 50
-156.39254193621954
 51
-145.56522857825615
  0
ARC
  5
c6d952b7
330
1F
  8
Layer
  6
Continuous
100
AcDbCircle
 10
12.278210965136106
 20
12.89181168370494
 30
0.0
 40
0.9537180417583189
100
AcDbArc
 50
-160.63540904709703
 51
-156.39254201309052
  0
ARC
  5
8c848b53
330
1F
  8
Layer
  6
Continuous
100
AcDbCircle
 10
11.608540997888428
 20
12.656448743174941
 30
0.0
 40
0.24389159902148083
100
AcDbArc
 50
-169.03117657248902
 51
-160.63540902755747
  0
ARC
  5
11fe6a49
330
1F
  8
Layer
  6
Continuous
100
AcDbCircle
 10
11.521065957289768
 20
12.639494708982335
 30
0.0
 40
0.1547887258739702
100
AcDbArc
 50
176.97282576513558
 51
-169.03117661005498
  0
ARC
  5
2af72f4d
330
1F
  8
Layer
  6
Continuous
100
AcDbCircle
 10
11.423205175874202
 20
12.64466991707546
 30
0.0
 40
0.05679119877214987
100
AcDbArc
 50
153.76547586908973
 51
176.9728255871165
  0
ARC
  5
def870ec
330
1F
  8
Layer
  6
Continuous
100
AcDbCircle
 10
11.413866939177595
 20
12.649271890498941
 30
0.0
 40
0.046380587647326166
100
AcDbArc
 50
123.98441098096194
 51
153.76547586910672
  0
ARC
  5
90b058b7
330
1F
  8
Layer
  6
Continuous
100
AcDbCircle
 10
11.403482041042468
 20
12.664677174759149
 30
0.0
 40
0.02780186615162723
100
AcDbArc
 50
68.84359186406607
 51
123.98441098095729
  0
ARC
  5
6cb1fa0f
330
1F
  8
Layer
  6
Continuous
100
AcDbCircle
 10
11.39861054811918
 20
12.652089319796067
 30
0.0
 40
0.041299478380211085
100
AcDbArc
 50
50.08176864989202
 51
68.84359126212225
  0
ARC
  5
cb581131
330
1F
  8
Layer
  6
Continuous
100
AcDbCircle
 10
11.331548764780978
 20
12.571936170921282
 30
0.0
 40
0.1458069425109769
100
AcDbArc
 50
40.12857614674041
 51
50.08176809551763
  0
ARC
  5
4f8e20ae
330
1F
  8
Layer
  6
Continuous
100
AcDbCircle
 10
11.178674548199238
 20
12.443073757661416
 30
0.0
 40
0.34574705266058525
100
AcDbArc
 50
34.10129408585068
 51
40.12857659406482
  0
ARC
  5
2046c07f
330
1F
  8
Layer
  6
Continuous
100
AcDbCircle
 10
11.567569541618502
 20
12.706388273336923
 30
0.0
 40
0.12390585116520555
100
AcDbArc
 50
-145.89870579770457
 51
-136.8369866940969
  0
ARC
  5
07bea963
330
1F
  8
Layer
  6
Continuous
100
AcDbCircle
 10
11.501650846730847
 20
12.644566528668864
 30
0.0
 40
0.033533275405218776
100
AcDbArc
 50
-136.83698603646621
 51
-120.33726275916361
  0
ARC
  5
3a532084
330
1F
  8
Layer
  6
Continuous
100
AcDbCircle
 10
11.48743836257099
 20
12.620281048697542
 30
0.0
 40
0.0053947032411643765
100
AcDbArc
 50
-120.3372633544848
 51
-46.825577535301306
  0
ARC
  5
9d2d4320
330
1F
  8
Layer
  6
Continuous
100
AcDbCircle
 10
11.481845435531
 20
12.626242241947022
 30
0.0
 40
0.013568848935503947
100
AcDbArc
 50
-46.82557838369207
 51
-16.09104967237591
  0
ARC
  5
ee4df325
330
1F
  8
Layer
  6
Continuous
100
AcDbCircle
 10
11.41453764481376
 20
12.645658247710584
 30
0.0
 40
0.08362111493059
100
AcDbArc
 50
-16.091049672329856
 51
2.774979327417953
  0
ARC
  5
4d2a059c
330
1F
  8
Layer
  6
Continuous
100
AcDbCircle
 10
11.393129117639466
 20
12.64462056681805
 30
0.0
 40
0.1050547757799931
100
AcDbArc
 50
2.774979519295824
 51
22.872098695437543
  0
ARC
  5
5c92b5e8
330
1F
  8
Layer
  6
Continuous
100
AcDbCircle
 10
11.303441662956438
 20
12.60678655923468
 30
0.0
 40
0.20239568011798997
100
AcDbArc
 50
22.872098989254525
 51
41.59050727322282
  0
ARC
  5
6457d52d
330
1F
  8
Layer
  6
Continuous
100
AcDbCircle
 10
11.264340338920285
 20
12.57208236227648
 30
0.0
 40
0.25467660233531114
100
AcDbArc
 50
41.59050729777186
 51
54.40444887296767
  0
ARC
  5
c4e34be4
330
1F
  8
Layer
  6
Continuous
100
AcDbCircle
 10
11.311483682628051
 20
12.637942291827638
 30
0.0
 40
0.17368261998827644
100
AcDbArc
 50
54.40444881396372
 51
69.93633491238452
  0
ARC
  5
db7f509a
330
1F
  8
Layer
  6
Continuous
100
AcDbCircle
 10
11.254007622363268
 20
12.480572416139422
 30
0.0
 40
0.34122000470489716
100
AcDbArc
 50
69.93633481864342
 51
78.06147331791357
  0
ARC
  5
ea4c5897
330
1F
  8
Layer
  6
Continuous
100
AcDbCircle
 10
11.022199237888024
 20
11.384216976344266
 30
0.0
 40
1.4618137658339894
100
AcDbArc
 50
78.06147332113869
 51
80.53754559667135
  0
ARC
  5
7140b3c8
330
1F
  8
Layer
  6
Continuous
100
AcDbCircle
 10
12.720888103119222
 20
21.576205143804494
 30
0.0
 40
8.870764163536277
100
AcDbArc
 50
-99.99528429313207
 51
-99.46245441634726
  0
ARC
  5
05761ab0
330
1F
  8
Layer
  6
Continuous
100
AcDbCircle
 10
11.302989016319959
 20
13.531027860809285
 30
0.0
 40
0.7015955806774136
100
AcDbArc
 50
-106.759283177199
 51
-99.99528431646443
  0
ARC
  5
5e762dc3
330
1F
  8
Layer
  6
Continuous
100
AcDbCircle
 10
11.252990770243212
 20
13.364999357232167
 30
0.0
 40
0.5282021303662565
100
AcDbArc
 50
-129.02673440694724
 51
-106.75928319411805
  0
ARC
  5
e9e98b96
330
1F
  8
Layer
  6
Continuous
100
AcDbCircle
 10
11.178358181911262
 20
13.272923664783471
 30
0.0
 40
0.4096780552547717
100
AcDbArc
 50
-143.1578145028562
 51
-129.02673439297612
  0
ARC
  5
67fa6971
330
1F
  8
Layer
  6
Continuous
100
AcDbCircle
 10
11.13504497457418
 20
13.24047148087173
 30
0.0
 40
0.3555561727074458
100
AcDbArc
 50
-160.7566361044023
 51
-143.1578144644511
  0
ARC
  5
f69645a2
330
1F
  8
Layer
  6
Continuous
100
AcDbCircle
 10
11.457402706538725
 20
13.353001952806906
 30
0.0
 40
0.696990814288055
100
AcDbArc
 50
-177.00373015405984
 51
-160.75663610803454
  0
ARC
  5
e3945d2c
330
1F
  8
Layer
  6
Continuous
100
AcDbCircle
 10
11.374740397541778
 20
13.348675201571538
 30
0.0
 40
0.6142153462739179
100
AcDbArc
 50
170.19157705379254
 51
-177.00373011271313
  0
ARC
  5
354d85c2
330
1F
  8
Layer
  6
Continuous
100
AcDbCircle
 10
11.162566626648953
 20
13.38535609818082
 30
0.0
 40
0.3988941972175763
100
AcDbArc
 50
158.0883753142821
 51
170.19157705379612
  0
ARC
  5
d80f4085
330
1F
  8
Layer
  6
Continuous
100
AcDbCircle
 10
11.10629137391264
 20
13.407991868557085
 30
0.0
 40
0.3382371104835203
100
AcDbArc
 50
130.68295406018157
 51
158.08837531428034
  0
ARC
  5
b409f0f7
330
1F
  8
Layer
  6
Continuous
100
AcDbCircle
 10
11.111431748043854
 20
13.402012034656996
 30
0.0
 40
0.3461226580029703
100
AcDbArc
 50
116.1481050622653
 51
130.68295406018342
  0
ARC
  5
9bbec1df
330
1F
  8
Layer
  6
Continuous
100
AcDbCircle
 10
11.117447534397252
 20
13.389758338337206
 30
0.0
 40
0.35977340006878533
100
AcDbArc
 50
110.00597456076596
 51
116.1481050622542
  0
ARC
  5
c0a2abca
330
1F
  8
Layer
  6
Continuous
100
AcDbCircle
 10
10.755615826618307
 20
14.383560335237238
 30
0.0
 40
0.6978487412447919
100
AcDbArc
 50
-69.99402543921458
 51
-66.8285856907104
  0
ARC
  5
308c932f
330
1F
  8
Layer
  6
Continuous
100
AcDbCircle
 10
10.934213864602265
 20
13.966285055886345
 30
0.0
 40
0.24395897717307144
100
AcDbArc
 50
-66.82858569069833
 51
-59.82370616923977
  0
ARC
  5
00506be4
330
1F
  8
Layer
  6
Continuous
100
AcDbCircle
 10
11.045275263510126
 20
13.775280731123058
 30
0.0
 40
0.02301263435280463
100
AcDbArc
 50
-59.82370616924198
 51
-36.877460366257
  0
ARC
  5
6355bf65
330
1F
  8
Layer
  6
Continuous
100
AcDbCircle
 10
11.058320080790233
 20
13.765494427517766
 30
0.0
 40
0.006704998223483716
100
AcDbArc
 50
-36.877460366324804
 51
0.6436439193694955
  0
ARC
  5
65518644
330
1F
  8
Layer
  6
Continuous
100
AcDbCircle
 10
11.060473151102107
 20
13.765518615686442
 30
0.0
 40
0.004551792047712123
100
AcDbArc
 50
0.6436414880563538
 51
46.594937996786065
  0
ARC
  5
81a5f8ec
330
1F
  8
Layer
  6
Continuous
100
AcDbCircle
 10
11.054514263884714
 20
13.759218385324772
 30
0.0
 40
0.013223656869058907
100
AcDbArc
 50
46.59493463745164
 51
75.72082634721029
  0
ARC
  5
9913bf5b
330
1F
  8
Layer
  6
Continuous
100
AcDbCircle
 10
11.022892044532131
 20
13.634970801783277
 30
0.0
 40
0.14143218533999732
100
AcDbArc
 50
75.72082640814185
 51
84.53990998292258
  0
ARC
  5
15b91ed7
330
1F
  8
Layer
  6
Continuous
100
AcDbCircle
 10
11.006712819120057
 20
13.46570739055435
 30
0.0
 40
0.3114670926848967
100
AcDbArc
 50
84.53990997318743
 51
88.91520705485804
  0
ARC
  5
9cd6537c
330
1F
  8
Layer
  6
Continuous
100
AcDbCircle
 10
10.994580923168122
 20
12.825010635240085
 30
0.0
 40
0.9522786992976433
100
AcDbArc
 50
88.91520699607466
 51
91.4170531052741
  0
ENDSEC
999
Created By CadLib version 2.0.33.7
999
CadLib website: www.woutware.com
  0
EOF
