  0
SECTION
  2
HEADER
  9
$ACADVER
  1
AC1012
  9
$DWGCODEPAGE
  3
ansi_1252
  9
$INSUNITS
  5

  9
$INSBASE
 10
0.0
 20
0.0
 30
0.0
  9
$EXTMIN
 10
-1000.0
 20
-1000.0
 30
0.0
  9
$EXTMAX
 10
1000.0
 20
1000.0
 30
0.0
  9
$LIMMIN
 10
0.0
 20
0.0
  9
$LIMMAX
 10
0.0
 20
0.0
  9
$ORTHOMODE
 70
     0
  9
$REGENMODE
 70
     1
  9
$FILLMODE
 70
     1
  9
$QTEXTMODE
 70
     0
  9
$MIRRTEXT
 70
     1
  9
$DRAGMODE
 70
     2
  9
$LTSCALE
 40
1.0
  9
$OSMODE
 70
    37
  9
$ATTMODE
 70
     1
  9
$TEXTSIZE
 40
0.1377952756
  9
$TRACEWID
 40
0.05
  9
$TEXTSTYLE
  7
STANDARD
  9
$CLAYER
  8
0
  9
$CELTYPE
  6
BYLAYER
  9
$CECOLOR
 62
   256
  9
$CELTSCALE
 40
1.0
  9
$DELOBJ
 70
     1
  9
$DISPSILH
 70
     0
  9
$DIMSCALE
 40
1.0
  9
$DIMASZ
 40
0.2362204724
  9
$DIMEXO
 40
0.0393700787
  9
$DIMDLI
 40
0.38
  9
$DIMRND
 40
0.0
  9
$DIMDLE
 40
0.0
  9
$DIMEXE
 40
0.0393700787
  9
$DIMTP
 40
0.0
  9
$DIMTM
 40
0.0
  9
$DIMTXT
 40
0.1377952756
  9
$DIMCEN
 40
0.09
  9
$DIMTSZ
 40
0.0
  9
$DIMTOL
 70
     0
  9
$DIMLIM
 70
     0
  9
$DIMTIH
 70
     1
  9
$DIMTOH
 70
     1
  9
$DIMSE1
 70
     0
  9
$DIMSE2
 70
     0
  9
$DIMTAD
 70
     0
  9
$DIMZIN
 70
     1
  9
$DIMBLK
  1

  9
$DIMASO
 70
     1
  9
$DIMSHO
 70
     1
  9
$DIMPOST
  1

  9
$DIMAPOST
  1

  9
$DIMALT
 70
     0
  9
$DIMALTD
 70
     2
  9
$DIMALTF
 40
25.4
  9
$DIMLFAC
 40
1.0
  9
$DIMTOFL
 70
     0
  9
$DIMTVP
 40
0.0
  9
$DIMTIX
 70
     0
  9
$DIMSOXD
 70
     0
  9
$DIMSAH
 70
     0
  9
$DIMBLK1
  1

  9
$DIMBLK2
  1

  9
$DIMSTYLE
  2
STANDARD
  9
$DIMCLRD
 70
     0
  9
$DIMCLRE
 70
     0
  9
$DIMCLRT
 70
     0
  9
$DIMTFAC
 40
1.0
  9
$DIMGAP
 40
0.06
  9
$DIMJUST
 70
     0
  9
$DIMSD1
 70
     0
  9
$DIMSD2
 70
     0
  9
$DIMTOLJ
 70
     1
  9
$DIMTZIN
 70
     1
  9
$DIMALTZ
 70
     0
  9
$DIMALTTZ
 70
     0
  9
$DIMFIT
 70
     3
  9
$DIMUPT
 70
     0
  9
$DIMUNIT
 70
     2
  9
$DIMDEC
 70
     4
  9
$DIMTDEC
 70
     4
  9
$DIMALTU
 70
     2
  9
$DIMALTTD
 70
     2
  9
$DIMTXSTY
  7
STANDARD
  9
$DIMAUNIT
 70
     0
  9
$LUNITS
 70
     2
  9
$LUPREC
 70
     4
  9
$SKETCHINC
 40
0.1
  9
$FILLETRAD
 40
0.5
  9
$AUNITS
 70
     0
  9
$AUPREC
 70
     0
  9
$MENU
  1
.
  9
$ELEVATION
 40
0.0
  9
$PELEVATION
 40
0.0
  9
$THICKNESS
 40
0.0
  9
$LIMCHECK
 70
     0
  9
$CHAMFERA
 40
0.5
  9
$CHAMFERB
 40
0.5
  9
$CHAMFERC
 40
1.0
  9
$CHAMFERD
 40
0.0
  9
$SKPOLY
 70
     0
  9
$TDCREATE
 40
2457059.4862175
  9
$TDUPDATE
 40
2457059.486217511
  9
$TDINDWG
 40
0.0000000116
  9
$TDUSRTIMER
 40
0.0000000116
  9
$USRTIMER
 70
     1
  9
$ANGBASE
 50
0.0
  9
$ANGDIR
 70
     0
  9
$PDMODE
 70
     0
  9
$PDSIZE
 40
-1.0
  9
$PLINEWID
 40
0.0
  9
$COORDS
 70
     1
  9
$SPLFRAME
 70
     0
  9
$SPLINETYPE
 70
     6
  9
$SPLINESEGS
 70
     8
  9
$ATTDIA
 70
     0
  9
$ATTREQ
 70
     1
  9
$HANDLING
 70
     1
  9
$HANDSEED
  5
48
  9
$SURFTAB1
 70
     6
  9
$SURFTAB2
 70
     6
  9
$SURFTYPE
 70
     6
  9
$SURFU
 70
     6
  9
$SURFV
 70
     6
  9
$UCSNAME
  2

  9
$UCSORG
 10
0.0
 20
0.0
 30
0.0
  9
$UCSXDIR
 10
1.0
 20
0.0
 30
0.0
  9
$UCSYDIR
 10
0.0
 20
1.0
 30
0.0
  9
$PUCSNAME
  2

  9
$PUCSORG
 10
0.0
 20
0.0
 30
0.0
  9
$PUCSXDIR
 10
1.0
 20
0.0
 30
0.0
  9
$PUCSYDIR
 10
0.0
 20
1.0
 30
0.0
  9
$USERI1
 70
     0
  9
$USERI2
 70
     0
  9
$USERI3
 70
     0
  9
$USERI4
 70
     0
  9
$USERI5
 70
     0
  9
$USERR1
 40
0.0
  9
$USERR2
 40
0.0
  9
$USERR3
 40
0.0
  9
$USERR4
 40
0.0
  9
$USERR5
 40
0.0
  9
$WORLDVIEW
 70
     1
  9
$SHADEDGE
 70
     3
  9
$SHADEDIF
 70
    70
  9
$TILEMODE
 70
     1
  9
$MAXACTVP
 70
    64
  9
$PINSBASE
 10
0.0
 20
0.0
 30
0.0
  9
$PLIMCHECK
 70
     0
  9
$PEXTMIN
 10
1.0000000000E+20
 20
1.0000000000E+20
 30
1.0000000000E+20
  9
$PEXTMAX
 10
-1.0000000000E+20
 20
-1.0000000000E+20
 30
-1.0000000000E+20
  9
$PLIMMIN
 10
0.0
 20
0.0
  9
$PLIMMAX
 10
12.0
 20
9.0
  9
$UNITMODE
 70
     0
  9
$VISRETAIN
 70
     1
  9
$PLINEGEN
 70
     0
  9
$PSLTSCALE
 70
     1
  9
$TREEDEPTH
 70
  3020
  9
$PICKSTYLE
 70
     1
  9
$CMLSTYLE
  2
STANDARD
  9
$CMLJUST
 70
     0
  9
$CMLSCALE
 40
1.0
  9
$SAVEIMAGES
 70
     1
  0
ENDSEC
  0
SECTION
  2
CLASSES
  0
CLASS
  1
ACDBDICTIONARYWDFLT
  2
AcDbDictionaryWithDefault
  3
ObjectDBX Classes
 90
    32768
280
     0
281
     0
  0
CLASS
  1
XRECORD
  2
AcDbXrecord
  3
AutoCAD 2000
 90
    32768
280
     0
281
     0
  0
CLASS
  1
LWPOLYLINE
  2
AcDbPolyline
  3
AutoCAD 2000
 90
    32768
280
     0
281
     1
  0
CLASS
  1
HATCH
  2
AcDbHatch
  3
AutoCAD 2000
 90
    32768
280
     0
281
     1
  0
CLASS
  1
ACDBPLACEHOLDER
  2
AcDbPlaceHolder
  3
ObjectDBX Classes
 90
        0
280
     0
281
     0
  0
CLASS
  1
LAYOUT
  2
AcDbLayout
  3
ObjectDBX Classes
 90
        0
280
     0
281
     0
  0
ENDSEC
  0
SECTION
  2
TABLES
  0
TABLE
  2
VPORT
  5
8
330
0
100
AcDbSymbolTable
 70
     1
  0
VPORT
  5
29
330
8
100
AcDbSymbolTableRecord
100
AcDbViewportTableRecord
  2
*ACTIVE
 70
     0
 10
0.0
 20
0.0
 11
1.0
 21
1.0
 12
8.2677165354
 22
5.8464566929
 13
0.0
 23
0.0
 14
0.5
 24
0.5
 15
0.5
 25
0.5
 16
0.0
 26
0.0
 36
1.0
 17
0.0
 27
0.0
 37
0.0
 40
11.6929133858
 41
1.4141414141
 42
50.0
 43
0.0
 44
0.0
 50
0.0
 51
0.0
 71
     0
 72
  2000
 73
     1
 74
     3
 75
     0
 76
     0
 77
     0
 78
     0
  0
ENDTAB
  0
TABLE
  2
LTYPE
  5
5
330
0
100
AcDbSymbolTable
 70
     6
  0
LTYPE
  5
14
330
5
100
AcDbSymbolTableRecord
100
AcDbLinetypeTableRecord
  2
BYBLOCK
 70
     0
  3

 72
    65
 73
     0
 40
0.0
  0
LTYPE
  5
15
330
5
100
AcDbSymbolTableRecord
100
AcDbLinetypeTableRecord
  2
BYLAYER
 70
     0
  3

 72
    65
 73
     0
 40
0.0
  0
LTYPE
  5
16
330
5
100
AcDbSymbolTableRecord
100
AcDbLinetypeTableRecord
  2
CONTINUOUS
 70
     0
  3
Solid line
 72
    65
 73
     0
 40
0.0
  0
LTYPE
  5
2A
330
5
100
AcDbSymbolTableRecord
100
AcDbLinetypeTableRecord
  2
HIDDEN
 70
     0
  3
Hidden __ __ __ __ __ __ __ __ __ __ __ __ __ __
 72
    65
 73
     2
 40
0.075
 49
0.05
 74
     0
 49
-0.025
 74
     0
  0
LTYPE
  5
2B
330
5
100
AcDbSymbolTableRecord
100
AcDbLinetypeTableRecord
  2
PHANTOM
 70
     0
  3
Phantom ______  __  __  ______  __  __  ______
 72
    65
 73
     6
 40
0.5
 49
0.25
 74
     0
 49
-0.05
 74
     0
 49
0.05
 74
     0
 49
-0.05
 74
     0
 49
0.05
 74
     0
 49
-0.05
 74
     0
  0
LTYPE
  5
2C
330
5
100
AcDbSymbolTableRecord
100
AcDbLinetypeTableRecord
  2
CENTER
 70
     0
  3
Center ____ _ ____ _ ____ _ ____ _ ____ _ ____
 72
    65
 73
     4
 40
0.4
 49
0.25
 74
     0
 49
-0.05
 74
     0
 49
0.05
 74
     0
 49
-0.05
 74
     0
  0
LTYPE
  5
2D
330
5
100
AcDbSymbolTableRecord
100
AcDbLinetypeTableRecord
  2
CENTERX2
 70
     0
  3
Center (2x) ________  __  ________  __  _____
 72
    65
 73
     4
 40
0.8
 49
0.5
 74
     0
 49
-0.1
 74
     0
 49
0.1
 74
     0
 49
-0.1
 74
     0
  0
LTYPE
  5
2E
330
5
100
AcDbSymbolTableRecord
100
AcDbLinetypeTableRecord
  2
DOT2
 70
     0
  3
Dot (.5x) ........................................
 72
    65
 73
     2
 40
0.025
 49
0.0
 74
     0
 49
-0.025
 74
     0
  0
ENDTAB
  0
TABLE
  2
LAYER
  5
2
330
0
100
AcDbSymbolTable
 70
     2
  0
LAYER
  5
10
330
2
100
AcDbSymbolTableRecord
100
AcDbLayerTableRecord
  2
0
 70
     0
 62
     7
  6
CONTINUOUS
  0
LAYER
  5
2F
330
2
100
AcDbSymbolTableRecord
100
AcDbLayerTableRecord
  2
GRAIN DIRECTION
 70
     0
 62
   2
  6
CONTINUOUS
  0
ENDTAB
  0
TABLE
  2
STYLE
  5
3
330
0
100
AcDbSymbolTable
 70
     1
  0
STYLE
  5
11
330
3
100
AcDbSymbolTableRecord
100
AcDbTextStyleTableRecord
  2
STANDARD
 70
     0
 40
0.0
 41
1.0
 50
0.0
 71
     0
 42
0.2
  3
txt
  4

  0
ENDTAB
  0
TABLE
  2
VIEW
  5
6
330
0
100
AcDbSymbolTable
 70
     0
  0
ENDTAB
  0
TABLE
  2
UCS
  5
7
330
0
100
AcDbSymbolTable
 70
     0
  0
ENDTAB
  0
TABLE
  2
APPID
  5
9
330
0
100
AcDbSymbolTable
 70
     1
  0
APPID
  5
12
330
9
100
AcDbSymbolTableRecord
100
AcDbRegAppTableRecord
  2
ACAD
 70
     0
  0
ENDTAB
  0
TABLE
  2
DIMSTYLE
  5
A
330
0
100
AcDbSymbolTable
 70
     1
  0
DIMSTYLE
105
27
330
A
100
AcDbSymbolTableRecord
100
AcDbDimStyleTableRecord
  2
STANDARD
 70
     0
  3

  4

  5

  6

  7

 40
1.0
 41
0.18
 42
0.0625
 43
0.38
 44
0.18
 45
0.0
 46
0.0
 47
0.0
 48
0.0
140
0.18
141
0.09
142
0.0
143
25.4
144
1.0
145
0.0
146
1.0
147
0.09
 71
     0
 72
     0
 73
     1
 74
     1
 75
     0
 76
     0
 77
     0
 78
     0
170
     0
171
     2
172
     0
173
     0
174
     0
175
     0
176
     0
177
     0
178
     0
270
     2
271
     4
272
     4
273
     2
274
     2
340
11
275
     0
280
     0
281
     0
282
     0
283
     1
284
     0
285
     0
286
     0
287
     3
288
     0
  0
ENDTAB
  0
TABLE
  2
BLOCK_RECORD
  5
1
330
0
100
AcDbSymbolTable
 70
     1
  0
BLOCK_RECORD
  5
1F
330
1
100
AcDbSymbolTableRecord
100
AcDbBlockTableRecord
  2
*MODEL_SPACE
  0
BLOCK_RECORD
  5
1B
330
1
100
AcDbSymbolTableRecord
100
AcDbBlockTableRecord
  2
*PAPER_SPACE
  0
ENDTAB
  0
ENDSEC
  0
SECTION
  2
BLOCKS
  0
BLOCK
  5
20
330
1F
100
AcDbEntity
  8
0
100
AcDbBlockBegin
  2
*MODEL_SPACE
 70
     0
 71
     0
 10
0.0
 20
0.0
 30
0.0
  3
*MODEL_SPACE
  1

  0
ENDBLK
  5
21
330
1F
100
AcDbEntity
  8
0
100
AcDbBlockEnd
  0
BLOCK
  5
1C
330
1B
100
AcDbEntity
 67
     1
  8
0
100
AcDbBlockBegin
  2
*PAPER_SPACE
 70
     0
 71
     0
 10
0.0
 20
0.0
 30
0.0
  3
*PAPER_SPACE
  1

  0
ENDBLK
  5
1D
330
1B
100
AcDbEntity
 67
     1
  8
0
100
AcDbBlockEnd
  0
ENDSEC
  0
SECTION
  2
ENTITIES
  0
LINE
  5
56acd230
330
1F
  8
Layer
100
AcDbEntity
  6
CONTINUOUS
100
AcDbLine
 10
0.200000
 20
-1.268785
 30
0.0
 11
0.400000
 21
-1.268785
 31
0.0
  0
LINE
  5
fc695136
330
1F
  8
Layer
100
AcDbEntity
  6
CONTINUOUS
100
AcDbLine
 10
0.400000
 20
-1.268785
 30
0.0
 11
0.400000
 21
-1.068785
 31
0.0
  0
LINE
  5
c9561cca
330
1F
  8
Layer
100
AcDbEntity
  6
CONTINUOUS
100
AcDbLine
 10
0.400000
 20
-1.068785
 30
0.0
 11
0.200000
 21
-1.068785
 31
0.0
  0
LINE
  5
ed8b1b76
330
1F
  8
Layer
100
AcDbEntity
  6
CONTINUOUS
100
AcDbLine
 10
0.200000
 20
-1.068785
 30
0.0
 11
0.200000
 21
-1.268785
 31
0.0
  0
LINE
  5
703d22ca
330
1F
  8
Layer
100
AcDbEntity
  6
CONTINUOUS
100
AcDbLine
 10
0.604064
 20
-1.666933
 30
0.0
 11
0.804064
 21
-1.666933
 31
0.0
  0
LINE
  5
7ae965d1
330
1F
  8
Layer
100
AcDbEntity
  6
CONTINUOUS
100
AcDbLine
 10
0.804064
 20
-1.666933
 30
0.0
 11
0.804064
 21
-1.466933
 31
0.0
  0
LINE
  5
74dfc2fc
330
1F
  8
Layer
100
AcDbEntity
  6
CONTINUOUS
100
AcDbLine
 10
0.804064
 20
-1.466933
 30
0.0
 11
0.604064
 21
-1.466933
 31
0.0
  0
LINE
  5
e5d54407
330
1F
  8
Layer
100
AcDbEntity
  6
CONTINUOUS
100
AcDbLine
 10
0.604064
 20
-1.466933
 30
0.0
 11
0.604064
 21
-1.666933
 31
0.0
  0
LINE
  5
5924f92c
330
1F
  8
Layer
100
AcDbEntity
  6
CONTINUOUS
100
AcDbLine
 10
0.608957
 20
-1.270564
 30
0.0
 11
0.808957
 21
-1.270564
 31
0.0
  0
LINE
  5
b941eba7
330
1F
  8
Layer
100
AcDbEntity
  6
CONTINUOUS
100
AcDbLine
 10
0.808957
 20
-1.270564
 30
0.0
 11
0.808957
 21
-1.070564
 31
0.0
  0
LINE
  5
36648d9c
330
1F
  8
Layer
100
AcDbEntity
  6
CONTINUOUS
100
AcDbLine
 10
0.808957
 20
-1.070564
 30
0.0
 11
0.608957
 21
-1.070564
 31
0.0
  0
LINE
  5
424eb830
330
1F
  8
Layer
100
AcDbEntity
  6
CONTINUOUS
100
AcDbLine
 10
0.608957
 20
-1.070564
 30
0.0
 11
0.608957
 21
-1.270564
 31
0.0
  0
LINE
  5
94f951f4
330
1F
  8
Layer
100
AcDbEntity
  6
CONTINUOUS
100
AcDbLine
 10
0.207695
 20
-1.666933
 30
0.0
 11
0.407695
 21
-1.666933
 31
0.0
  0
LINE
  5
3b576688
330
1F
  8
Layer
100
AcDbEntity
  6
CONTINUOUS
100
AcDbLine
 10
0.407695
 20
-1.666933
 30
0.0
 11
0.407695
 21
-1.466933
 31
0.0
  0
LINE
  5
aba648fc
330
1F
  8
Layer
100
AcDbEntity
  6
CONTINUOUS
100
AcDbLine
 10
0.407695
 20
-1.466933
 30
0.0
 11
0.207695
 21
-1.466933
 31
0.0
  0
LINE
  5
c3b8e238
330
1F
  8
Layer
100
AcDbEntity
  6
CONTINUOUS
100
AcDbLine
 10
0.207695
 20
-1.466933
 30
0.0
 11
0.207695
 21
-1.666933
 31
0.0
  0
LINE
  5
aa46acf2
330
1F
  8
Layer
100
AcDbEntity
  6
CONTINUOUS
100
AcDbLine
 10
0.5999999999999999
 20
-0.9687854151268791
 30
0.0
 11
0.5999999999999999
 21
-0.868785415126879
 31
0.0
  0
LINE
  5
21702429
330
1F
  8
Layer
100
AcDbEntity
  6
CONTINUOUS
100
AcDbLine
 10
0.5999999999999999
 20
-0.868785415126879
 30
0.0
 11
0.8999999999999999
 21
-0.868785415126879
 31
0.0
  0
LINE
  5
b07d6c82
330
1F
  8
Layer
100
AcDbEntity
  6
CONTINUOUS
100
AcDbLine
 10
0.8999999999999999
 20
-0.868785415126879
 30
0.0
 11
1.0
 21
-0.868785415126879
 31
0.0
  0
LINE
  5
6cf29406
330
1F
  8
Layer
100
AcDbEntity
  6
CONTINUOUS
100
AcDbLine
 10
1.0
 20
-0.868785415126879
 30
0.0
 11
1.0
 21
-0.9687854151268791
 31
0.0
  0
LINE
  5
b5c8700a
330
1F
  8
Layer
100
AcDbEntity
  6
CONTINUOUS
100
AcDbLine
 10
1.0
 20
-0.9687854151268791
 30
0.0
 11
1.0
 21
-1.268785415126879
 31
0.0
  0
LINE
  5
399a8a37
330
1F
  8
Layer
100
AcDbEntity
  6
CONTINUOUS
100
AcDbLine
 10
1.0
 20
-1.268785415126879
 30
0.0
 11
0.8999999999999999
 21
-1.268785415126879
 31
0.0
  0
LINE
  5
2b9d63fb
330
1F
  8
Layer
100
AcDbEntity
  6
CONTINUOUS
100
AcDbLine
 10
0.8999999999999999
 20
-1.268785415126879
 30
0.0
 11
0.8999999999999999
 21
-0.9687854151268791
 31
0.0
  0
LINE
  5
6c3cf1f7
330
1F
  8
Layer
100
AcDbEntity
  6
CONTINUOUS
100
AcDbLine
 10
0.8999999999999999
 20
-0.9687854151268791
 30
0.0
 11
0.5999999999999999
 21
-0.9687854151268791
 31
0.0
  0
LINE
  5
f5a2e26a
330
1F
  8
Layer
100
AcDbEntity
  6
CONTINUOUS
100
AcDbLine
 10
0.5999999999999999
 20
-1.868785415126879
 30
0.0
 11
0.5999999999999999
 21
-1.768785415126879
 31
0.0
  0
LINE
  5
699c0996
330
1F
  8
Layer
100
AcDbEntity
  6
CONTINUOUS
100
AcDbLine
 10
0.5999999999999999
 20
-1.768785415126879
 30
0.0
 11
0.8999999999999999
 21
-1.768785415126879
 31
0.0
  0
LINE
  5
bda98431
330
1F
  8
Layer
100
AcDbEntity
  6
CONTINUOUS
100
AcDbLine
 10
0.8999999999999999
 20
-1.768785415126879
 30
0.0
 11
0.8999999999999999
 21
-1.468785415126879
 31
0.0
  0
LINE
  5
b5b81f17
330
1F
  8
Layer
100
AcDbEntity
  6
CONTINUOUS
100
AcDbLine
 10
0.8999999999999999
 20
-1.468785415126879
 30
0.0
 11
1.0
 21
-1.468785415126879
 31
0.0
  0
LINE
  5
4c26f005
330
1F
  8
Layer
100
AcDbEntity
  6
CONTINUOUS
100
AcDbLine
 10
1.0
 20
-1.468785415126879
 30
0.0
 11
1.0
 21
-1.768785415126879
 31
0.0
  0
LINE
  5
dc9c4aab
330
1F
  8
Layer
100
AcDbEntity
  6
CONTINUOUS
100
AcDbLine
 10
1.0
 20
-1.768785415126879
 30
0.0
 11
1.0
 21
-1.868785415126879
 31
0.0
  0
LINE
  5
bd8fd503
330
1F
  8
Layer
100
AcDbEntity
  6
CONTINUOUS
100
AcDbLine
 10
1.0
 20
-1.868785415126879
 30
0.0
 11
0.8999999999999999
 21
-1.868785415126879
 31
0.0
  0
LINE
  5
f4f174a9
330
1F
  8
Layer
100
AcDbEntity
  6
CONTINUOUS
100
AcDbLine
 10
0.8999999999999999
 20
-1.868785415126879
 30
0.0
 11
0.5999999999999999
 21
-1.868785415126879
 31
0.0
  0
LINE
  5
a0b70b19
330
1F
  8
Layer
100
AcDbEntity
  6
CONTINUOUS
100
AcDbLine
 10
0.0
 20
-1.868785415126879
 30
0.0
 11
0.0
 21
-1.768785415126879
 31
0.0
  0
LINE
  5
f000219f
330
1F
  8
Layer
100
AcDbEntity
  6
CONTINUOUS
100
AcDbLine
 10
0.0
 20
-1.768785415126879
 30
0.0
 11
0.0
 21
-1.468785415126879
 31
0.0
  0
LINE
  5
91f25973
330
1F
  8
Layer
100
AcDbEntity
  6
CONTINUOUS
100
AcDbLine
 10
0.0
 20
-1.468785415126879
 30
0.0
 11
0.10000000000000009
 21
-1.468785415126879
 31
0.0
  0
LINE
  5
2adf9bf3
330
1F
  8
Layer
100
AcDbEntity
  6
CONTINUOUS
100
AcDbLine
 10
0.10000000000000009
 20
-1.468785415126879
 30
0.0
 11
0.10000000000000009
 21
-1.768785415126879
 31
0.0
  0
LINE
  5
17ed1d3d
330
1F
  8
Layer
100
AcDbEntity
  6
CONTINUOUS
100
AcDbLine
 10
0.10000000000000009
 20
-1.768785415126879
 30
0.0
 11
0.3999999999999999
 21
-1.768785415126879
 31
0.0
  0
LINE
  5
2513229b
330
1F
  8
Layer
100
AcDbEntity
  6
CONTINUOUS
100
AcDbLine
 10
0.3999999999999999
 20
-1.768785415126879
 30
0.0
 11
0.3999999999999999
 21
-1.868785415126879
 31
0.0
  0
LINE
  5
b7300791
330
1F
  8
Layer
100
AcDbEntity
  6
CONTINUOUS
100
AcDbLine
 10
0.3999999999999999
 20
-1.868785415126879
 30
0.0
 11
0.10000000000000009
 21
-1.868785415126879
 31
0.0
  0
LINE
  5
82403499
330
1F
  8
Layer
100
AcDbEntity
  6
CONTINUOUS
100
AcDbLine
 10
0.10000000000000009
 20
-1.868785415126879
 30
0.0
 11
0.0
 21
-1.868785415126879
 31
0.0
  0
LINE
  5
5e02e15d
330
1F
  8
Layer
100
AcDbEntity
  6
CONTINUOUS
100
AcDbLine
 10
0.0
 20
-1.268785415126879
 30
0.0
 11
0.0
 21
-0.9687854151268791
 31
0.0
  0
LINE
  5
20d51615
330
1F
  8
Layer
100
AcDbEntity
  6
CONTINUOUS
100
AcDbLine
 10
0.0
 20
-0.9687854151268791
 30
0.0
 11
0.0
 21
-0.868785415126879
 31
0.0
  0
LINE
  5
fbcd95dd
330
1F
  8
Layer
100
AcDbEntity
  6
CONTINUOUS
100
AcDbLine
 10
0.0
 20
-0.868785415126879
 30
0.0
 11
0.10000000000000009
 21
-0.868785415126879
 31
0.0
  0
LINE
  5
b95adaa5
330
1F
  8
Layer
100
AcDbEntity
  6
CONTINUOUS
100
AcDbLine
 10
0.10000000000000009
 20
-0.868785415126879
 30
0.0
 11
0.3999999999999999
 21
-0.868785415126879
 31
0.0
  0
LINE
  5
21c74d18
330
1F
  8
Layer
100
AcDbEntity
  6
CONTINUOUS
100
AcDbLine
 10
0.3999999999999999
 20
-0.868785415126879
 30
0.0
 11
0.3999999999999999
 21
-0.9687854151268791
 31
0.0
  0
LINE
  5
b877e62b
330
1F
  8
Layer
100
AcDbEntity
  6
CONTINUOUS
100
AcDbLine
 10
0.3999999999999999
 20
-0.9687854151268791
 30
0.0
 11
0.10000000000000009
 21
-0.9687854151268791
 31
0.0
  0
LINE
  5
0c208714
330
1F
  8
Layer
100
AcDbEntity
  6
CONTINUOUS
100
AcDbLine
 10
0.10000000000000009
 20
-0.9687854151268791
 30
0.0
 11
0.10000000000000009
 21
-1.268785415126879
 31
0.0
  0
LINE
  5
b584c3c4
330
1F
  8
Layer
100
AcDbEntity
  6
CONTINUOUS
100
AcDbLine
 10
0.10000000000000009
 20
-1.268785415126879
 30
0.0
 11
0.0
 21
-1.268785415126879
 31
0.0
  0
LINE
  5
cce6909c
330
1F
  8
Layer
100
AcDbEntity
  6
CONTINUOUS
100
AcDbLine
 10
0.200000
 20
0.000000
 30
0.0
 11
0.400000
 21
0.000000
 31
0.0
  0
LINE
  5
02a01a6f
330
1F
  8
Layer
100
AcDbEntity
  6
CONTINUOUS
100
AcDbLine
 10
0.400000
 20
0.000000
 30
0.0
 11
0.400000
 21
0.200000
 31
0.0
  0
LINE
  5
810ff3b9
330
1F
  8
Layer
100
AcDbEntity
  6
CONTINUOUS
100
AcDbLine
 10
0.400000
 20
0.200000
 30
0.0
 11
0.200000
 21
0.200000
 31
0.0
  0
LINE
  5
bbbea823
330
1F
  8
Layer
100
AcDbEntity
  6
CONTINUOUS
100
AcDbLine
 10
0.200000
 20
0.200000
 30
0.0
 11
0.200000
 21
0.000000
 31
0.0
  0
LINE
  5
b9b3dd7f
330
1F
  8
Layer
100
AcDbEntity
  6
CONTINUOUS
100
AcDbLine
 10
0.604064
 20
-0.398147
 30
0.0
 11
0.804064
 21
-0.398147
 31
0.0
  0
LINE
  5
c390018c
330
1F
  8
Layer
100
AcDbEntity
  6
CONTINUOUS
100
AcDbLine
 10
0.804064
 20
-0.398147
 30
0.0
 11
0.804064
 21
-0.198147
 31
0.0
  0
LINE
  5
7772332a
330
1F
  8
Layer
100
AcDbEntity
  6
CONTINUOUS
100
AcDbLine
 10
0.804064
 20
-0.198147
 30
0.0
 11
0.604064
 21
-0.198147
 31
0.0
  0
LINE
  5
8a00161b
330
1F
  8
Layer
100
AcDbEntity
  6
CONTINUOUS
100
AcDbLine
 10
0.604064
 20
-0.198147
 30
0.0
 11
0.604064
 21
-0.398147
 31
0.0
  0
LINE
  5
f0e38797
330
1F
  8
Layer
100
AcDbEntity
  6
CONTINUOUS
100
AcDbLine
 10
0.608957
 20
-0.001778
 30
0.0
 11
0.808957
 21
-0.001778
 31
0.0
  0
LINE
  5
24b64946
330
1F
  8
Layer
100
AcDbEntity
  6
CONTINUOUS
100
AcDbLine
 10
0.808957
 20
-0.001778
 30
0.0
 11
0.808957
 21
0.198222
 31
0.0
  0
LINE
  5
e5620450
330
1F
  8
Layer
100
AcDbEntity
  6
CONTINUOUS
100
AcDbLine
 10
0.808957
 20
0.198222
 30
0.0
 11
0.608957
 21
0.198222
 31
0.0
  0
LINE
  5
dc76a6fd
330
1F
  8
Layer
100
AcDbEntity
  6
CONTINUOUS
100
AcDbLine
 10
0.608957
 20
0.198222
 30
0.0
 11
0.608957
 21
-0.001778
 31
0.0
  0
LINE
  5
8e6e47be
330
1F
  8
Layer
100
AcDbEntity
  6
CONTINUOUS
100
AcDbLine
 10
0.207695
 20
-0.398147
 30
0.0
 11
0.407695
 21
-0.398147
 31
0.0
  0
LINE
  5
7a2e3335
330
1F
  8
Layer
100
AcDbEntity
  6
CONTINUOUS
100
AcDbLine
 10
0.407695
 20
-0.398147
 30
0.0
 11
0.407695
 21
-0.198147
 31
0.0
  0
LINE
  5
d9315f2b
330
1F
  8
Layer
100
AcDbEntity
  6
CONTINUOUS
100
AcDbLine
 10
0.407695
 20
-0.198147
 30
0.0
 11
0.207695
 21
-0.198147
 31
0.0
  0
LINE
  5
77e7acca
330
1F
  8
Layer
100
AcDbEntity
  6
CONTINUOUS
100
AcDbLine
 10
0.207695
 20
-0.198147
 30
0.0
 11
0.207695
 21
-0.398147
 31
0.0
  0
LINE
  5
d5948a34
330
1F
  8
Layer
100
AcDbEntity
  6
CONTINUOUS
100
AcDbLine
 10
0.5999999999999999
 20
0.2999999999999998
 30
0.0
 11
0.5999999999999999
 21
0.3999999999999999
 31
0.0
  0
LINE
  5
ddb09fe3
330
1F
  8
Layer
100
AcDbEntity
  6
CONTINUOUS
100
AcDbLine
 10
0.5999999999999999
 20
0.3999999999999999
 30
0.0
 11
0.8999999999999999
 21
0.3999999999999999
 31
0.0
  0
LINE
  5
da6bdfc1
330
1F
  8
Layer
100
AcDbEntity
  6
CONTINUOUS
100
AcDbLine
 10
0.8999999999999999
 20
0.3999999999999999
 30
0.0
 11
1.0
 21
0.3999999999999999
 31
0.0
  0
LINE
  5
0a88c83b
330
1F
  8
Layer
100
AcDbEntity
  6
CONTINUOUS
100
AcDbLine
 10
1.0
 20
0.3999999999999999
 30
0.0
 11
1.0
 21
0.2999999999999998
 31
0.0
  0
LINE
  5
9d2d0664
330
1F
  8
Layer
100
AcDbEntity
  6
CONTINUOUS
100
AcDbLine
 10
1.0
 20
0.2999999999999998
 30
0.0
 11
1.0
 21
0.0
 31
0.0
  0
LINE
  5
2b46c225
330
1F
  8
Layer
100
AcDbEntity
  6
CONTINUOUS
100
AcDbLine
 10
1.0
 20
0.0
 30
0.0
 11
0.8999999999999999
 21
0.0
 31
0.0
  0
LINE
  5
4f270062
330
1F
  8
Layer
100
AcDbEntity
  6
CONTINUOUS
100
AcDbLine
 10
0.8999999999999999
 20
0.0
 30
0.0
 11
0.8999999999999999
 21
0.2999999999999998
 31
0.0
  0
LINE
  5
4b11d644
330
1F
  8
Layer
100
AcDbEntity
  6
CONTINUOUS
100
AcDbLine
 10
0.8999999999999999
 20
0.2999999999999998
 30
0.0
 11
0.5999999999999999
 21
0.2999999999999998
 31
0.0
  0
LINE
  5
f0991d72
330
1F
  8
Layer
100
AcDbEntity
  6
CONTINUOUS
100
AcDbLine
 10
0.5999999999999999
 20
-0.6000000000000001
 30
0.0
 11
0.5999999999999999
 21
-0.5
 31
0.0
  0
LINE
  5
fe65e7e2
330
1F
  8
Layer
100
AcDbEntity
  6
CONTINUOUS
100
AcDbLine
 10
0.5999999999999999
 20
-0.5
 30
0.0
 11
0.8999999999999999
 21
-0.5
 31
0.0
  0
LINE
  5
9089cc70
330
1F
  8
Layer
100
AcDbEntity
  6
CONTINUOUS
100
AcDbLine
 10
0.8999999999999999
 20
-0.5
 30
0.0
 11
0.8999999999999999
 21
-0.20000000000000018
 31
0.0
  0
LINE
  5
5e9cb38c
330
1F
  8
Layer
100
AcDbEntity
  6
CONTINUOUS
100
AcDbLine
 10
0.8999999999999999
 20
-0.20000000000000018
 30
0.0
 11
1.0
 21
-0.20000000000000018
 31
0.0
  0
LINE
  5
f8a48ed2
330
1F
  8
Layer
100
AcDbEntity
  6
CONTINUOUS
100
AcDbLine
 10
1.0
 20
-0.20000000000000018
 30
0.0
 11
1.0
 21
-0.5
 31
0.0
  0
LINE
  5
f8a5140e
330
1F
  8
Layer
100
AcDbEntity
  6
CONTINUOUS
100
AcDbLine
 10
1.0
 20
-0.5
 30
0.0
 11
1.0
 21
-0.6000000000000001
 31
0.0
  0
LINE
  5
f492c513
330
1F
  8
Layer
100
AcDbEntity
  6
CONTINUOUS
100
AcDbLine
 10
1.0
 20
-0.6000000000000001
 30
0.0
 11
0.8999999999999999
 21
-0.6000000000000001
 31
0.0
  0
LINE
  5
47590d75
330
1F
  8
Layer
100
AcDbEntity
  6
CONTINUOUS
100
AcDbLine
 10
0.8999999999999999
 20
-0.6000000000000001
 30
0.0
 11
0.5999999999999999
 21
-0.6000000000000001
 31
0.0
  0
LINE
  5
fade48fe
330
1F
  8
Layer
100
AcDbEntity
  6
CONTINUOUS
100
AcDbLine
 10
0.0
 20
-0.6000000000000001
 30
0.0
 11
0.0
 21
-0.5
 31
0.0
  0
LINE
  5
ff9fae9b
330
1F
  8
Layer
100
AcDbEntity
  6
CONTINUOUS
100
AcDbLine
 10
0.0
 20
-0.5
 30
0.0
 11
0.0
 21
-0.20000000000000018
 31
0.0
  0
LINE
  5
d61bc805
330
1F
  8
Layer
100
AcDbEntity
  6
CONTINUOUS
100
AcDbLine
 10
0.0
 20
-0.20000000000000018
 30
0.0
 11
0.10000000000000009
 21
-0.20000000000000018
 31
0.0
  0
LINE
  5
56b16445
330
1F
  8
Layer
100
AcDbEntity
  6
CONTINUOUS
100
AcDbLine
 10
0.10000000000000009
 20
-0.20000000000000018
 30
0.0
 11
0.10000000000000009
 21
-0.5
 31
0.0
  0
LINE
  5
4e673a07
330
1F
  8
Layer
100
AcDbEntity
  6
CONTINUOUS
100
AcDbLine
 10
0.10000000000000009
 20
-0.5
 30
0.0
 11
0.3999999999999999
 21
-0.5
 31
0.0
  0
LINE
  5
72328831
330
1F
  8
Layer
100
AcDbEntity
  6
CONTINUOUS
100
AcDbLine
 10
0.3999999999999999
 20
-0.5
 30
0.0
 11
0.3999999999999999
 21
-0.6000000000000001
 31
0.0
  0
LINE
  5
33a5d760
330
1F
  8
Layer
100
AcDbEntity
  6
CONTINUOUS
100
AcDbLine
 10
0.3999999999999999
 20
-0.6000000000000001
 30
0.0
 11
0.10000000000000009
 21
-0.6000000000000001
 31
0.0
  0
LINE
  5
b7241b07
330
1F
  8
Layer
100
AcDbEntity
  6
CONTINUOUS
100
AcDbLine
 10
0.10000000000000009
 20
-0.6000000000000001
 30
0.0
 11
0.0
 21
-0.6000000000000001
 31
0.0
  0
LINE
  5
55312c59
330
1F
  8
Layer
100
AcDbEntity
  6
CONTINUOUS
100
AcDbLine
 10
0.0
 20
0.0
 30
0.0
 11
0.0
 21
0.2999999999999998
 31
0.0
  0
LINE
  5
3d22951b
330
1F
  8
Layer
100
AcDbEntity
  6
CONTINUOUS
100
AcDbLine
 10
0.0
 20
0.2999999999999998
 30
0.0
 11
0.0
 21
0.3999999999999999
 31
0.0
  0
LINE
  5
a79a607d
330
1F
  8
Layer
100
AcDbEntity
  6
CONTINUOUS
100
AcDbLine
 10
0.0
 20
0.3999999999999999
 30
0.0
 11
0.10000000000000009
 21
0.3999999999999999
 31
0.0
  0
LINE
  5
a64bdc45
330
1F
  8
Layer
100
AcDbEntity
  6
CONTINUOUS
100
AcDbLine
 10
0.10000000000000009
 20
0.3999999999999999
 30
0.0
 11
0.3999999999999999
 21
0.3999999999999999
 31
0.0
  0
LINE
  5
0d70ff16
330
1F
  8
Layer
100
AcDbEntity
  6
CONTINUOUS
100
AcDbLine
 10
0.3999999999999999
 20
0.3999999999999999
 30
0.0
 11
0.3999999999999999
 21
0.2999999999999998
 31
0.0
  0
LINE
  5
2d0dbfee
330
1F
  8
Layer
100
AcDbEntity
  6
CONTINUOUS
100
AcDbLine
 10
0.3999999999999999
 20
0.2999999999999998
 30
0.0
 11
0.10000000000000009
 21
0.2999999999999998
 31
0.0
  0
LINE
  5
bf8bc00a
330
1F
  8
Layer
100
AcDbEntity
  6
CONTINUOUS
100
AcDbLine
 10
0.10000000000000009
 20
0.2999999999999998
 30
0.0
 11
0.10000000000000009
 21
0.0
 31
0.0
  0
LINE
  5
8453f54a
330
1F
  8
Layer
100
AcDbEntity
  6
CONTINUOUS
100
AcDbLine
 10
0.10000000000000009
 20
0.0
 30
0.0
 11
0.0
 21
0.0
 31
0.0
  0
ENDSEC
  0
SECTION
  2
OBJECTS
  0
DICTIONARY
  5
C
330
0
100
AcDbDictionary
  3
ACAD_GROUP
350
D
  3
ACAD_LAYOUT
350
1A
  3
ACAD_MLINESTYLE
350
17
  3
ACAD_PLOTSETTINGS
350
19
1001
ACAD
1000
TREAT_AS_HARD
1070
     0
  0
DICTIONARY
  5
D
102
{ACAD_REACTORS
330
C
102
}
330
C
100
AcDbDictionary
1001
ACAD
1000
TREAT_AS_HARD
1070
     0
  0
DICTIONARY
  5
1A
102
{ACAD_REACTORS
330
C
102
}
330
C
100
AcDbDictionary
1001
ACAD
1000
TREAT_AS_HARD
1070
     0
  0
DICTIONARY
  5
17
102
{ACAD_REACTORS
330
C
102
}
330
C
100
AcDbDictionary
  3
STANDARD
350
18
1001
ACAD
1000
TREAT_AS_HARD
1070
     0
  0
DICTIONARY
  5
19
102
{ACAD_REACTORS
330
C
102
}
330
C
100
AcDbDictionary
1001
ACAD
1000
TREAT_AS_HARD
1070
     0
  0
MLINESTYLE
  5
18
102
{ACAD_REACTORS
330
17
102
}
330
17
100
AcDbMlineStyle
  2
Standard
 70
     0
  3

 62
   256
 51
90.0
 52
90.0
 71
     2
 49
0.5
 62
   256
  6
BYLAYER
 49
-0.5
 62
   256
  6
BYLAYER
  0
ENDSEC
  0
EOF
