  0
SECTION
  2
HEADER
  9
$ACADVER
  1
AC1009
  9
$DWGCODEPAGE
  3
ansi_1252
  9
$INSBASE
 10
0
 20
0
 30
0
  9
$EXTMIN
 10
-1000
 20
-1000
 30
0
  9
$EXTMAX
 10
1000
 20
1000
 30
0
  9
$LIMMIN
 10
-103.73186
 20
-20.1418
  9
$LIMMAX
 10
57.24126
 20
120.8508
  9
$ORTHOMODE
 70
0
  9
$REGENMODE
 70
1
  9
$FILLMODE
 70
1
  9
$QTEXTMODE
 70
0
  9
$MIRRTEXT
 70
1
  9
$LTSCALE
 40
1
  9
$ATTMODE
 70
1
  9
$TEXTSIZE
 40
0.2
  9
$TRACEWID
 40
0.05
  9
$TEXTSTYLE
  7
Standard
  9
$CLAYER
  8
Outline
  9
$CELTYPE
  6
Continuous
  9
$CECOLOR
 62
256
  9
$DIMSCALE
 40
1
  9
$DIMASZ
 40
0.18
  9
$DIMEXO
 40
0.0625
  9
$DIMDLI
 40
0.38
  9
$DIMRND
 40
0
  9
$DIMDLE
 40
0
  9
$DIMEXE
 40
0.18
  9
$DIMTP
 40
0
  9
$DIMTM
 40
0
  9
$DIMTXT
 40
0.18
  9
$DIMCEN
 40
0.09
  9
$DIMTSZ
 40
0
  9
$DIMTOL
 70
0
  9
$DIMLIM
 70
0
  9
$DIMTIH
 70
1
  9
$DIMTOH
 70
1
  9
$DIMSE1
 70
0
  9
$DIMSE2
 70
0
  9
$DIMTAD
 70
0
  9
$DIMZIN
 70
0
  9
$DIMBLK
  1

  9
$DIMASO
 70
1
  9
$DIMSHO
 70
1
  9
$DIMPOST
  1

  9
$DIMAPOST
  1

  9
$DIMALT
 70
0
  9
$DIMALTD
 70
2
  9
$DIMALTF
 40
1
  9
$DIMLFAC
 40
1
  9
$DIMTOFL
 70
0
  9
$DIMTVP
 40
0
  9
$DIMTIX
 70
0
  9
$DIMSOXD
 70
0
  9
$DIMSAH
 70
0
  9
$DIMBLK1
  1

  9
$DIMBLK2
  1

  9
$MEASUREMENT
 70
0
  9
$INSUNITS
 70
1
  9
$DIMSTYLE
  2
STANDARD
  9
$DIMCLRD
 70
0
  9
$DIMCLRE
 70
0
  9
$DIMCLRT
 70
0
  9
$DIMTFAC
 40
1
  9
$DIMGAP
 40
0.09
  9
$LUNITS
 70
     2
  9
$MEASUREMENT
 70
     0
  9
$LUPREC
 70
4
  9
$SKETCHINC
 40
0.1
  9
$FILLETRAD
 40
0
  9
$AUNITS
 70
0
  9
$AUPREC
 70
0
  9
$MENU
  1
.
  9
$ELEVATION
 40
0
  9
$PELEVATION
 40
0
  9
$THICKNESS
 40
0
  9
$LIMCHECK
 70
0
  9
$CHAMFERA
 40
0.5
  9
$CHAMFERB
 40
0.5
  9
$SKPOLY
 70
0
  9
$TDCREATE
 40
2456054
  9
$TDUPDATE
 40
2456054
  9
$TDINDWG
 40
0
  9
$TDUSRTIMER
 40
0
  9
$USRTIMER
 70
1
  9
$ANGBASE
 50
0
  9
$ANGDIR
 70
1
  9
$PDMODE
 70
0
  9
$PDSIZE
 40
0
  9
$PLINEWID
 40
0
  9
$SPLFRAME
 70
0
  9
$SPLINETYPE
 70
6
  9
$SPLINESEGS
 70
8
  9
$HANDLING
 70
0
  9
$HANDSEED
  5
60
  9
$SURFTAB1
 70
6
  9
$SURFTAB2
 70
6
  9
$SURFTYPE
 70
6
  9
$SURFU
 70
6
  9
$SURFV
 70
6
  9
$UCSORG
 10
0
 20
0
 30
0
  9
$UCSXDIR
 10
1
 20
0
 30
0
  9
$UCSYDIR
 10
0
 20
1
 30
0
  9
$PUCSORG
 10
0
 20
0
 30
0
  9
$PUCSXDIR
 10
1
 20
0
 30
0
  9
$PUCSYDIR
 10
0
 20
1
 30
0
  9
$USERI1
 70
0
  9
$USERI2
 70
0
  9
$USERI3
 70
0
  9
$USERI4
 70
0
  9
$USERI5
 70
0
  9
$USERR1
 40
0
  9
$USERR2
 40
0
  9
$USERR3
 40
0
  9
$USERR4
 40
0
  9
$USERR5
 40
0
  9
$WORLDVIEW
 70
1
  9
$SHADEDGE
 70
3
  9
$SHADEDIF
 70
70
  9
$TILEMODE
 70
1
  9
$MAXACTVP
 70
48
  9
$PINSBASE
 10
0
 20
0
 30
0
  9
$PLIMCHECK
 70
0
  9
$PEXTMIN
 10
1E+20
 20
1E+20
 30
1E+20
  9
$PEXTMAX
 10
-1E+20
 20
-1E+20
 30
-1E+20
  9
$PLIMMAX
 10
0
 20
0
  9
$PLIMMIN
 10
0
 20
0
  9
$UNITMODE
 70
0
  9
$VISRETAIN
 70
1
  9
$PLINEGEN
 70
1
  9
$PSLTSCALE
 70
1
  9
$TREEDEPTH
 70
3020
  0
ENDSEC
  0
SECTION
  2
TABLES
  0
TABLE
  2
LTYPE
 70
7
  0
LTYPE
  2
Continuous
  3
Solid line
 70
64
 72
65
 73
0
 40
0
  0
LTYPE
  2
ByBlock
  3

 70
64
 72
65
 73
0
 40
0
  0
LTYPE
  2
ByLayer
  3

 70
64
 72
65
 73
0
 40
0
  0
LTYPE
  2
OutlineType
  3

 70
64
 72
65
 73
0
 40
0
  0
LTYPE
  2
BendingLineType
  3

 70
64
 72
65
 73
2
 40
7
 49
5
 49
-2
  0
LTYPE
  2
BendEdgeLineType
  3

 70
64
 72
65
 73
2
 40
3
 49
1
 49
-2
  0
LTYPE
  2
IllegalLineType
  3

 70
64
 72
65
 73
4
 40
6
 49
2
 49
-2
 49
0
 49
-2
  0
ENDTAB
  0
TABLE
  2
LAYER
 70
3
  0
LAYER
 70
0
  2
Outline
 62
5
  6
Continuous
  0
LAYER
 70
0
  2
BendingLines
 62
3
  6
Continuous
  0
LAYER
 70
64
  2
0
 62
7
  6
Continuous
  0
ENDTAB
  0
TABLE
  2
STYLE
 70
1
  0
STYLE
  2
Standard
 70
64
 40
0
 41
1
 50
0
 71
0
 42
0.2
  3
txt.shx
  0
ENDTAB
  0
TABLE
  2
APPID
 70
4
  0
APPID
  2
ACAD
 70
64
  0
APPID
  2
ACAD_MLEADERVER
 70
64
  0
APPID
  2
POS3000_V3_PRODUCT
 70
64
  0
APPID
  2
POS3000_V3_BENDINGLINE
 70
64
  0
ENDTAB
  0
TABLE
  2
DIMSTYLE
 70
1
  0
DIMSTYLE
  2
Standard
 70
64
  3

  4

  5

  6

  7

 40
1
 41
0.18
 42
0.0625
 43
0.38
 44
0.18
 45
0
 46
0
 47
0
 48
0
140
0.18
141
0.09
142
0
143
1
144
1
145
0
146
1
147
0.09
 71
0
 72
0
 73
1
 74
1
 75
0
 76
0
 77
0
 78
0
170
0
171
2
172
0
173
0
174
0
175
0
176
0
177
0
178
0
  0
ENDTAB
  0
ENDSEC
  0
SECTION
  2
BLOCKS
  0
BLOCK
  8
Outline
  2
*Model_Space
 70
64
 10
0
 20
0
 30
0
  3
*Model_Space
  0
ENDBLK
  8
0
  0
BLOCK
  8
Outline
 67
1
  2
*Paper_Space
 70
64
 10
0
 20
0
 30
0
  3
*Paper_Space
  0
ENDBLK
  8
0
  0
ENDSEC
  0
SECTION
  2
ENTITIES
  0
ARC
  5
eb64bd96
330
1F
  8
Layer
  6
Continuous
100
AcDbCircle
 10
1.1000004127265417
 20
1.380000359395078
 30
0.0
 40
0.2250004127268289
100
AcDbArc
 50
-179.99990848096283
 51
-89.14496725445754
  0
ARC
  5
ba4b980c
330
1F
  8
Layer
  6
Continuous
100
AcDbCircle
 10
1.104999305532844
 20
1.0450365510628232
 30
0.0
 40
0.11000069446807191
100
AcDbArc
 50
2.3383675559902328E-4
 51
90.85493432666348
  0
LINE
  5
dad3e668
330
1F
  8
Layer
  6
Continuous
100
AcDbLine
 10
1.2149999999999999
 20
1.0450370000000002
 30
0.0
 11
1.2149999999999999
 21
-1.0450380000000001
 31
0.0
  0
ARC
  5
3e1a65f1
330
1F
  8
Layer
  6
Continuous
100
AcDbCircle
 10
1.104999305532844
 20
-1.0450375510628234
 30
0.0
 40
0.11000069446807188
100
AcDbArc
 50
-90.85493432666348
 51
2.3383675559902328E-4
  0
ARC
  5
96f757e0
330
1F
  8
Layer
  6
Continuous
100
AcDbCircle
 10
1.1000004127265417
 20
-1.380001359395078
 30
0.0
 40
0.2250004127268289
100
AcDbArc
 50
89.14496725445754
 51
-179.99990848096283
  0
ARC
  5
88b1715e
330
1F
  8
Layer
  6
Continuous
100
AcDbCircle
 10
0.7650008674392061
 20
-1.3800018674392065
 30
0.0
 40
0.10999913256421383
100
AcDbArc
 50
-90.00045182724945
 51
2.3383675559902328E-4
  0
LINE
  5
d2010fdb
330
1F
  8
Layer
  6
Continuous
100
AcDbLine
 10
0.7649999999999998
 20
-1.4900010000000001
 30
0.0
 11
-0.7650000000000003
 21
-1.4900010000000001
 31
0.0
  0
ARC
  5
f9f2968a
330
1F
  8
Layer
  6
Continuous
100
AcDbCircle
 10
-0.7650008674392068
 20
-1.3800018674392065
 30
0.0
 40
0.10999913256421386
100
AcDbArc
 50
179.9995481727506
 51
-90.00045182724945
  0
ARC
  5
a839a0f1
330
1F
  8
Layer
  6
Continuous
100
AcDbCircle
 10
-1.1000004127265421
 20
-1.380001359395078
 30
0.0
 40
0.2250004127268289
100
AcDbArc
 50
9.151903714455469E-5
 51
90.85503274554246
  0
ARC
  5
9cbe3300
330
1F
  8
Layer
  6
Continuous
100
AcDbCircle
 10
-1.1049993055328444
 20
-1.0450375510628234
 30
0.0
 40
0.11000069446807191
100
AcDbArc
 50
179.9995481727506
 51
-89.14506567333652
  0
LINE
  5
ae03067b
330
1F
  8
Layer
  6
Continuous
100
AcDbLine
 10
-1.215
 20
-1.0450380000000001
 30
0.0
 11
-1.215
 21
1.0450370000000002
 31
0.0
  0
ARC
  5
17b216fa
330
1F
  8
Layer
  6
Continuous
100
AcDbCircle
 10
-1.1049993055328444
 20
1.0450365510628234
 30
0.0
 40
0.11000069446807188
100
AcDbArc
 50
89.14506567333652
 51
179.9995481727506
  0
ARC
  5
ae3bb9a4
330
1F
  8
Layer
  6
Continuous
100
AcDbCircle
 10
-1.1000004127265421
 20
1.380000359395078
 30
0.0
 40
0.2250004127268289
100
AcDbArc
 50
-90.85503274554246
 51
9.151903714455469E-5
  0
ARC
  5
a379703b
330
1F
  8
Layer
  6
Continuous
100
AcDbCircle
 10
-0.7650008674392068
 20
1.3800008674392066
 30
0.0
 40
0.10999913256421383
100
AcDbArc
 50
89.9995481727505
 51
179.9995481727506
  0
LINE
  5
cbb959ea
330
1F
  8
Layer
  6
Continuous
100
AcDbLine
 10
-0.7650000000000003
 20
1.4900000000000002
 30
0.0
 11
0.7649999999999998
 21
1.4900000000000002
 31
0.0
  0
ARC
  5
5013bf13
330
1F
  8
Layer
  6
Continuous
100
AcDbCircle
 10
0.7650008674392063
 20
1.3800008674392066
 30
0.0
 40
0.10999913256421386
100
AcDbArc
 50
2.3383675559902328E-4
 51
89.9995481727505
  0
CIRCLE
  5
908a52f4
330
1F
  8
Layer
  6
Continuous
100
AcDbCircle
 10
1.0999999999999999
 20
1.3800000000000001
 30
0.0
 40
0.08
  0
CIRCLE
  5
46c2e124
330
1F
  8
Layer
  6
Continuous
100
AcDbCircle
 10
1.0999999999999999
 20
-1.38
 30
0.0
 40
0.08
  0
CIRCLE
  5
01233cb1
330
1F
  8
Layer
  6
Continuous
100
AcDbCircle
 10
-1.1
 20
-1.38
 30
0.0
 40
0.08
  0
CIRCLE
  5
32b0d746
330
1F
  8
Layer
  6
Continuous
100
AcDbCircle
 10
-1.1
 20
1.3800000000000001
 30
0.0
 40
0.08
  0
ENDSEC
999
Created By CadLib version 2.0.33.7
999
CadLib website: www.woutware.com
  0
EOF
