  0
SECTION
  2
HEADER
  9
$ACADVER
  1
AC1012
  9
$DWGCODEPAGE
  3
ansi_1252
  9
$INSUNITS
  5

  9
$INSBASE
 10
0.0
 20
0.0
 30
0.0
  9
$EXTMIN
 10
-1000.0
 20
-1000.0
 30
0.0
  9
$EXTMAX
 10
1000.0
 20
1000.0
 30
0.0
  9
$LIMMIN
 10
0.0
 20
0.0
  9
$LIMMAX
 10
0.0
 20
0.0
  9
$ORTHOMODE
 70
     0
  9
$REGENMODE
 70
     1
  9
$FILLMODE
 70
     1
  9
$QTEXTMODE
 70
     0
  9
$MIRRTEXT
 70
     1
  9
$DRAGMODE
 70
     2
  9
$LTSCALE
 40
1.0
  9
$OSMODE
 70
    37
  9
$ATTMODE
 70
     1
  9
$TEXTSIZE
 40
0.1377952756
  9
$TRACEWID
 40
0.05
  9
$TEXTSTYLE
  7
STANDARD
  9
$CLAYER
  8
0
  9
$CELTYPE
  6
BYLAYER
  9
$CECOLOR
 62
   256
  9
$CELTSCALE
 40
1.0
  9
$DELOBJ
 70
     1
  9
$DISPSILH
 70
     0
  9
$DIMSCALE
 40
1.0
  9
$DIMASZ
 40
0.2362204724
  9
$DIMEXO
 40
0.0393700787
  9
$DIMDLI
 40
0.38
  9
$DIMRND
 40
0.0
  9
$DIMDLE
 40
0.0
  9
$DIMEXE
 40
0.0393700787
  9
$DIMTP
 40
0.0
  9
$DIMTM
 40
0.0
  9
$DIMTXT
 40
0.1377952756
  9
$DIMCEN
 40
0.09
  9
$DIMTSZ
 40
0.0
  9
$DIMTOL
 70
     0
  9
$DIMLIM
 70
     0
  9
$DIMTIH
 70
     1
  9
$DIMTOH
 70
     1
  9
$DIMSE1
 70
     0
  9
$DIMSE2
 70
     0
  9
$DIMTAD
 70
     0
  9
$DIMZIN
 70
     1
  9
$DIMBLK
  1

  9
$DIMASO
 70
     1
  9
$DIMSHO
 70
     1
  9
$DIMPOST
  1

  9
$DIMAPOST
  1

  9
$DIMALT
 70
     0
  9
$DIMALTD
 70
     2
  9
$DIMALTF
 40
25.4
  9
$DIMLFAC
 40
1.0
  9
$DIMTOFL
 70
     0
  9
$DIMTVP
 40
0.0
  9
$DIMTIX
 70
     0
  9
$DIMSOXD
 70
     0
  9
$DIMSAH
 70
     0
  9
$DIMBLK1
  1

  9
$DIMBLK2
  1

  9
$DIMSTYLE
  2
STANDARD
  9
$DIMCLRD
 70
     0
  9
$DIMCLRE
 70
     0
  9
$DIMCLRT
 70
     0
  9
$DIMTFAC
 40
1.0
  9
$DIMGAP
 40
0.06
  9
$DIMJUST
 70
     0
  9
$DIMSD1
 70
     0
  9
$DIMSD2
 70
     0
  9
$DIMTOLJ
 70
     1
  9
$DIMTZIN
 70
     1
  9
$DIMALTZ
 70
     0
  9
$DIMALTTZ
 70
     0
  9
$DIMFIT
 70
     3
  9
$DIMUPT
 70
     0
  9
$DIMUNIT
 70
     2
  9
$DIMDEC
 70
     4
  9
$DIMTDEC
 70
     4
  9
$DIMALTU
 70
     2
  9
$DIMALTTD
 70
     2
  9
$DIMTXSTY
  7
STANDARD
  9
$DIMAUNIT
 70
     0
  9
$LUNITS
 70
     2
  9
$LUPREC
 70
     4
  9
$SKETCHINC
 40
0.1
  9
$FILLETRAD
 40
0.5
  9
$AUNITS
 70
     0
  9
$AUPREC
 70
     0
  9
$MENU
  1
.
  9
$ELEVATION
 40
0.0
  9
$PELEVATION
 40
0.0
  9
$THICKNESS
 40
0.0
  9
$LIMCHECK
 70
     0
  9
$CHAMFERA
 40
0.5
  9
$CHAMFERB
 40
0.5
  9
$CHAMFERC
 40
1.0
  9
$CHAMFERD
 40
0.0
  9
$SKPOLY
 70
     0
  9
$TDCREATE
 40
2457059.4862175
  9
$TDUPDATE
 40
2457059.486217511
  9
$TDINDWG
 40
0.0000000116
  9
$TDUSRTIMER
 40
0.0000000116
  9
$USRTIMER
 70
     1
  9
$ANGBASE
 50
0.0
  9
$ANGDIR
 70
     0
  9
$PDMODE
 70
     0
  9
$PDSIZE
 40
-1.0
  9
$PLINEWID
 40
0.0
  9
$COORDS
 70
     1
  9
$SPLFRAME
 70
     0
  9
$SPLINETYPE
 70
     6
  9
$SPLINESEGS
 70
     8
  9
$ATTDIA
 70
     0
  9
$ATTREQ
 70
     1
  9
$HANDLING
 70
     1
  9
$HANDSEED
  5
48
  9
$SURFTAB1
 70
     6
  9
$SURFTAB2
 70
     6
  9
$SURFTYPE
 70
     6
  9
$SURFU
 70
     6
  9
$SURFV
 70
     6
  9
$UCSNAME
  2

  9
$UCSORG
 10
0.0
 20
0.0
 30
0.0
  9
$UCSXDIR
 10
1.0
 20
0.0
 30
0.0
  9
$UCSYDIR
 10
0.0
 20
1.0
 30
0.0
  9
$PUCSNAME
  2

  9
$PUCSORG
 10
0.0
 20
0.0
 30
0.0
  9
$PUCSXDIR
 10
1.0
 20
0.0
 30
0.0
  9
$PUCSYDIR
 10
0.0
 20
1.0
 30
0.0
  9
$USERI1
 70
     0
  9
$USERI2
 70
     0
  9
$USERI3
 70
     0
  9
$USERI4
 70
     0
  9
$USERI5
 70
     0
  9
$USERR1
 40
0.0
  9
$USERR2
 40
0.0
  9
$USERR3
 40
0.0
  9
$USERR4
 40
0.0
  9
$USERR5
 40
0.0
  9
$WORLDVIEW
 70
     1
  9
$SHADEDGE
 70
     3
  9
$SHADEDIF
 70
    70
  9
$TILEMODE
 70
     1
  9
$MAXACTVP
 70
    64
  9
$PINSBASE
 10
0.0
 20
0.0
 30
0.0
  9
$PLIMCHECK
 70
     0
  9
$PEXTMIN
 10
1.0000000000E+20
 20
1.0000000000E+20
 30
1.0000000000E+20
  9
$PEXTMAX
 10
-1.0000000000E+20
 20
-1.0000000000E+20
 30
-1.0000000000E+20
  9
$PLIMMIN
 10
0.0
 20
0.0
  9
$PLIMMAX
 10
12.0
 20
9.0
  9
$UNITMODE
 70
     0
  9
$VISRETAIN
 70
     1
  9
$PLINEGEN
 70
     0
  9
$PSLTSCALE
 70
     1
  9
$TREEDEPTH
 70
  3020
  9
$PICKSTYLE
 70
     1
  9
$CMLSTYLE
  2
STANDARD
  9
$CMLJUST
 70
     0
  9
$CMLSCALE
 40
1.0
  9
$SAVEIMAGES
 70
     1
  0
ENDSEC
  0
SECTION
  2
CLASSES
  0
CLASS
  1
ACDBDICTIONARYWDFLT
  2
AcDbDictionaryWithDefault
  3
ObjectDBX Classes
 90
    32768
280
     0
281
     0
  0
CLASS
  1
XRECORD
  2
AcDbXrecord
  3
AutoCAD 2000
 90
    32768
280
     0
281
     0
  0
CLASS
  1
LWPOLYLINE
  2
AcDbPolyline
  3
AutoCAD 2000
 90
    32768
280
     0
281
     1
  0
CLASS
  1
HATCH
  2
AcDbHatch
  3
AutoCAD 2000
 90
    32768
280
     0
281
     1
  0
CLASS
  1
ACDBPLACEHOLDER
  2
AcDbPlaceHolder
  3
ObjectDBX Classes
 90
        0
280
     0
281
     0
  0
CLASS
  1
LAYOUT
  2
AcDbLayout
  3
ObjectDBX Classes
 90
        0
280
     0
281
     0
  0
ENDSEC
  0
SECTION
  2
TABLES
  0
TABLE
  2
VPORT
  5
8
330
0
100
AcDbSymbolTable
 70
     1
  0
VPORT
  5
29
330
8
100
AcDbSymbolTableRecord
100
AcDbViewportTableRecord
  2
*ACTIVE
 70
     0
 10
0.0
 20
0.0
 11
1.0
 21
1.0
 12
8.2677165354
 22
5.8464566929
 13
0.0
 23
0.0
 14
0.5
 24
0.5
 15
0.5
 25
0.5
 16
0.0
 26
0.0
 36
1.0
 17
0.0
 27
0.0
 37
0.0
 40
11.6929133858
 41
1.4141414141
 42
50.0
 43
0.0
 44
0.0
 50
0.0
 51
0.0
 71
     0
 72
  2000
 73
     1
 74
     3
 75
     0
 76
     0
 77
     0
 78
     0
  0
ENDTAB
  0
TABLE
  2
LTYPE
  5
5
330
0
100
AcDbSymbolTable
 70
     6
  0
LTYPE
  5
14
330
5
100
AcDbSymbolTableRecord
100
AcDbLinetypeTableRecord
  2
BYBLOCK
 70
     0
  3

 72
    65
 73
     0
 40
0.0
  0
LTYPE
  5
15
330
5
100
AcDbSymbolTableRecord
100
AcDbLinetypeTableRecord
  2
BYLAYER
 70
     0
  3

 72
    65
 73
     0
 40
0.0
  0
LTYPE
  5
16
330
5
100
AcDbSymbolTableRecord
100
AcDbLinetypeTableRecord
  2
CONTINUOUS
 70
     0
  3
Solid line
 72
    65
 73
     0
 40
0.0
  0
LTYPE
  5
2A
330
5
100
AcDbSymbolTableRecord
100
AcDbLinetypeTableRecord
  2
HIDDEN
 70
     0
  3
Hidden __ __ __ __ __ __ __ __ __ __ __ __ __ __
 72
    65
 73
     2
 40
0.075
 49
0.05
 74
     0
 49
-0.025
 74
     0
  0
LTYPE
  5
2B
330
5
100
AcDbSymbolTableRecord
100
AcDbLinetypeTableRecord
  2
PHANTOM
 70
     0
  3
Phantom ______  __  __  ______  __  __  ______
 72
    65
 73
     6
 40
0.5
 49
0.25
 74
     0
 49
-0.05
 74
     0
 49
0.05
 74
     0
 49
-0.05
 74
     0
 49
0.05
 74
     0
 49
-0.05
 74
     0
  0
LTYPE
  5
2C
330
5
100
AcDbSymbolTableRecord
100
AcDbLinetypeTableRecord
  2
CENTER
 70
     0
  3
Center ____ _ ____ _ ____ _ ____ _ ____ _ ____
 72
    65
 73
     4
 40
0.4
 49
0.25
 74
     0
 49
-0.05
 74
     0
 49
0.05
 74
     0
 49
-0.05
 74
     0
  0
LTYPE
  5
2D
330
5
100
AcDbSymbolTableRecord
100
AcDbLinetypeTableRecord
  2
CENTERX2
 70
     0
  3
Center (2x) ________  __  ________  __  _____
 72
    65
 73
     4
 40
0.8
 49
0.5
 74
     0
 49
-0.1
 74
     0
 49
0.1
 74
     0
 49
-0.1
 74
     0
  0
LTYPE
  5
2E
330
5
100
AcDbSymbolTableRecord
100
AcDbLinetypeTableRecord
  2
DOT2
 70
     0
  3
Dot (.5x) ........................................
 72
    65
 73
     2
 40
0.025
 49
0.0
 74
     0
 49
-0.025
 74
     0
  0
ENDTAB
  0
TABLE
  2
LAYER
  5
2
330
0
100
AcDbSymbolTable
 70
     2
  0
LAYER
  5
10
330
2
100
AcDbSymbolTableRecord
100
AcDbLayerTableRecord
  2
0
 70
     0
 62
     7
  6
CONTINUOUS
  0
LAYER
  5
2F
330
2
100
AcDbSymbolTableRecord
100
AcDbLayerTableRecord
  2
GRAIN DIRECTION
 70
     0
 62
   2
  6
CONTINUOUS
  0
ENDTAB
  0
TABLE
  2
STYLE
  5
3
330
0
100
AcDbSymbolTable
 70
     1
  0
STYLE
  5
11
330
3
100
AcDbSymbolTableRecord
100
AcDbTextStyleTableRecord
  2
STANDARD
 70
     0
 40
0.0
 41
1.0
 50
0.0
 71
     0
 42
0.2
  3
txt
  4

  0
ENDTAB
  0
TABLE
  2
VIEW
  5
6
330
0
100
AcDbSymbolTable
 70
     0
  0
ENDTAB
  0
TABLE
  2
UCS
  5
7
330
0
100
AcDbSymbolTable
 70
     0
  0
ENDTAB
  0
TABLE
  2
APPID
  5
9
330
0
100
AcDbSymbolTable
 70
     1
  0
APPID
  5
12
330
9
100
AcDbSymbolTableRecord
100
AcDbRegAppTableRecord
  2
ACAD
 70
     0
  0
ENDTAB
  0
TABLE
  2
DIMSTYLE
  5
A
330
0
100
AcDbSymbolTable
 70
     1
  0
DIMSTYLE
105
27
330
A
100
AcDbSymbolTableRecord
100
AcDbDimStyleTableRecord
  2
STANDARD
 70
     0
  3

  4

  5

  6

  7

 40
1.0
 41
0.18
 42
0.0625
 43
0.38
 44
0.18
 45
0.0
 46
0.0
 47
0.0
 48
0.0
140
0.18
141
0.09
142
0.0
143
25.4
144
1.0
145
0.0
146
1.0
147
0.09
 71
     0
 72
     0
 73
     1
 74
     1
 75
     0
 76
     0
 77
     0
 78
     0
170
     0
171
     2
172
     0
173
     0
174
     0
175
     0
176
     0
177
     0
178
     0
270
     2
271
     4
272
     4
273
     2
274
     2
340
11
275
     0
280
     0
281
     0
282
     0
283
     1
284
     0
285
     0
286
     0
287
     3
288
     0
  0
ENDTAB
  0
TABLE
  2
BLOCK_RECORD
  5
1
330
0
100
AcDbSymbolTable
 70
     1
  0
BLOCK_RECORD
  5
1F
330
1
100
AcDbSymbolTableRecord
100
AcDbBlockTableRecord
  2
*MODEL_SPACE
  0
BLOCK_RECORD
  5
1B
330
1
100
AcDbSymbolTableRecord
100
AcDbBlockTableRecord
  2
*PAPER_SPACE
  0
ENDTAB
  0
ENDSEC
  0
SECTION
  2
BLOCKS
  0
BLOCK
  5
20
330
1F
100
AcDbEntity
  8
0
100
AcDbBlockBegin
  2
*MODEL_SPACE
 70
     0
 71
     0
 10
0.0
 20
0.0
 30
0.0
  3
*MODEL_SPACE
  1

  0
ENDBLK
  5
21
330
1F
100
AcDbEntity
  8
0
100
AcDbBlockEnd
  0
BLOCK
  5
1C
330
1B
100
AcDbEntity
 67
     1
  8
0
100
AcDbBlockBegin
  2
*PAPER_SPACE
 70
     0
 71
     0
 10
0.0
 20
0.0
 30
0.0
  3
*PAPER_SPACE
  1

  0
ENDBLK
  5
1D
330
1B
100
AcDbEntity
 67
     1
  8
0
100
AcDbBlockEnd
  0
ENDSEC
  0
SECTION
  2
ENTITIES
  0
LINE
  5
a3baa57e
330
1F
  8
Layer
100
AcDbEntity
  6
Continuous
100
AcDbLine
 10
2.9497732760999993
 20
2.3076947219333332
 30
0.0
 11
2.9497732760999993
 21
2.321583610822222
 31
0.0
  0
LINE
  5
7eb573f4
330
1F
  8
Layer
100
AcDbEntity
  6
Continuous
100
AcDbLine
 10
2.9497732760999993
 20
2.321583610822222
 30
0.0
 11
2.688145943696464
 21
2.321583610822222
 31
0.0
  0
LINE
  5
4cd12063
330
1F
  8
Layer
100
AcDbEntity
  6
Continuous
100
AcDbLine
 10
2.688145943696464
 20
2.321583610822222
 30
0.0
 11
2.4956870471875967
 21
1.244394933751373
 31
0.0
  0
LINE
  5
d8fa40e1
330
1F
  8
Layer
100
AcDbEntity
  6
Continuous
100
AcDbLine
 10
2.4956870471875967
 20
1.244394933751373
 30
0.0
 11
2.5230318016124023
 21
1.239509307515294
 31
0.0
  0
LINE
  5
0892ae23
330
1F
  8
Layer
100
AcDbEntity
  6
Continuous
100
AcDbLine
 10
2.5230318016124023
 20
1.239509307515294
 30
0.0
 11
2.7114006085035345
 21
2.2938058330444444
 31
0.0
  0
LINE
  5
89e7f217
330
1F
  8
Layer
100
AcDbEntity
  6
Continuous
100
AcDbLine
 10
2.7114006085035345
 20
2.2938058330444444
 30
0.0
 11
2.9497732760999993
 21
2.2938058330444444
 31
0.0
  0
LINE
  5
2129ecf6
330
1F
  8
Layer
100
AcDbEntity
  6
Continuous
100
AcDbLine
 10
2.9497732760999993
 20
2.2938058330444444
 30
0.0
 11
2.9497732760999993
 21
2.3076947219333332
 31
0.0
  0
LINE
  5
2b7c237f
330
1F
  8
Layer
100
AcDbEntity
  6
CONTINUOUS
100
AcDbLine
 10
2.531967292199999
 20
1.2379128233333332
 30
0.0
 11
2.4867515566
 21
1.2459914179333333
 31
0.0
  0
LINE
  5
a6d4aad4
330
1F
  8
Layer
100
AcDbEntity
  6
CONTINUOUS
100
AcDbLine
 10
2.4867515566
 20
1.2459914179333333
 30
0.0
 11
2.4851236406999995
 21
1.1063049136333332
 31
0.0
  0
LINE
  5
f462d577
330
1F
  8
Layer
100
AcDbEntity
  6
CONTINUOUS
100
AcDbLine
 10
2.4851236406999995
 20
1.1063049136333332
 30
0.0
 11
2.531967292199999
 21
1.2379128233333332
 31
0.0
  0
LINE
  5
16539157
330
1F
  8
Layer
100
AcDbEntity
  6
CONTINUOUS
100
AcDbLine
 10
7.077708359299999
 20
0.5938151219333334
 30
0.0
 11
7.112419664799999
 21
0.07339279143333322
 31
0.0
  0
LINE
  5
5d4d263a
330
1F
  8
Layer
100
AcDbEntity
  6
CONTINUOUS
100
AcDbLine
 10
7.112419664799999
 20
0.07339279143333322
 30
0.0
 11
7.077708359299999
 21
0.5938151219333334
 31
0.0
  0
LINE
  5
ea4f59ec
330
1F
  8
Layer
100
AcDbEntity
  6
CONTINUOUS
100
AcDbLine
 10
7.054793393999999
 20
0.5922867317333331
 30
0.0
 11
7.100623324599999
 21
0.5953435120333332
 31
0.0
  0
LINE
  5
a89520a8
330
1F
  8
Layer
100
AcDbEntity
  6
CONTINUOUS
100
AcDbLine
 10
7.100623324599999
 20
0.5953435120333332
 30
0.0
 11
7.0685380184
 21
0.7313049136333332
 31
0.0
  0
LINE
  5
163cfa0b
330
1F
  8
Layer
100
AcDbEntity
  6
CONTINUOUS
100
AcDbLine
 10
7.0685380184
 20
0.7313049136333332
 30
0.0
 11
7.054793393999999
 21
0.5922867317333331
 31
0.0
  0
LINE
  5
242d5074
330
1F
  8
Layer
100
AcDbEntity
  6
Continuous
100
AcDbLine
 10
0.0
 20
0.7313049136333332
 30
0.0
 11
0.0
 21
0.745193802522222
 31
0.0
  0
LINE
  5
947b8b72
330
1F
  8
Layer
100
AcDbEntity
  6
Continuous
100
AcDbLine
 10
0.0
 20
0.745193802522222
 30
0.0
 11
11.807438220099998
 21
0.745193802522222
 31
0.0
  0
LINE
  5
a1a17ee5
330
1F
  8
Layer
100
AcDbEntity
  6
Continuous
100
AcDbLine
 10
11.807438220099998
 20
0.745193802522222
 30
0.0
 11
11.807438220099998
 21
0.7174160247444443
 31
0.0
  0
LINE
  5
2e71975a
330
1F
  8
Layer
100
AcDbEntity
  6
Continuous
100
AcDbLine
 10
11.807438220099998
 20
0.7174160247444443
 30
0.0
 11
0.0
 21
0.7174160247444443
 31
0.0
  0
LINE
  5
a08c2743
330
1F
  8
Layer
100
AcDbEntity
  6
Continuous
100
AcDbLine
 10
0.0
 20
0.7174160247444443
 30
0.0
 11
0.0
 21
0.7313049136333332
 31
0.0
  0
LINE
  5
05ee3a73
330
1F
  8
Layer
100
AcDbEntity
  6
CONTINUOUS
100
AcDbLine
 10
7.644310648799999
 20
1.0138049136333334
 30
0.0
 11
7.644310648799999
 21
2.7738049136333336
 31
0.0
  0
LINE
  5
fd353ea7
330
1F
  8
Layer
100
AcDbEntity
  6
CONTINUOUS
100
AcDbLine
 10
7.644310648799999
 20
2.7738049136333336
 30
0.0
 11
1.3843106487999997
 21
2.7738049136333336
 31
0.0
  0
LINE
  5
089c9fea
330
1F
  8
Layer
100
AcDbEntity
  6
CONTINUOUS
100
AcDbLine
 10
1.3843106487999997
 20
2.7738049136333336
 30
0.0
 11
1.3843106487999997
 21
1.0138049136333334
 31
0.0
  0
LINE
  5
419e22ab
330
1F
  8
Layer
100
AcDbEntity
  6
CONTINUOUS
100
AcDbLine
 10
1.3843106487999997
 20
1.0138049136333334
 30
0.0
 11
7.644310648799999
 21
1.0138049136333334
 31
0.0
  0
LINE
  5
57d0722c
330
1F
  8
Layer
100
AcDbEntity
  6
CONTINUOUS
100
AcDbLine
 10
10.7151727861
 20
5.405804913633333
 30
0.0
 11
10.3401727861
 21
5.405804913633333
 31
0.0
  0
LINE
  5
8732c61d
330
1F
  8
Layer
100
AcDbEntity
  6
CONTINUOUS
100
AcDbLine
 10
10.3401727861
 20
5.405804913633333
 30
0.0
 11
10.3401727861
 21
5.1118014439333335
 31
0.0
  0
LINE
  5
68925a46
330
1F
  8
Layer
100
AcDbEntity
  6
CONTINUOUS
100
AcDbLine
 10
10.3401727861
 20
5.1118014439333335
 30
0.0
 11
10.3151727831
 21
5.1118014439333335
 31
0.0
  0
ARC
  5
ca4e3c8f
330
1F
  8
Layer
100
AcDbEntity
  6
CONTINUOUS
100
AcDbCircle
 10
10.3151727831
 20
5.011801443933334
 30
0.0
 40
0.09999999999999926
100
AcDbArc
 50
90.0
 51
180.0
  0
LINE
  5
a06adf6d
330
1F
  8
Layer
100
AcDbEntity
  6
CONTINUOUS
100
AcDbLine
 10
10.2151727831
 20
5.011801443933334
 30
0.0
 11
10.2151727831
 21
1.5238014439333343
 31
0.0
  0
ARC
  5
60852ff5
330
1F
  8
Layer
100
AcDbEntity
  6
CONTINUOUS
100
AcDbCircle
 10
10.3151727831
 20
1.5238014439333338
 30
0.0
 40
0.09999999999999927
100
AcDbArc
 50
179.99999999999974
 51
-90.0
  0
LINE
  5
b2056b2e
330
1F
  8
Layer
100
AcDbEntity
  6
CONTINUOUS
100
AcDbLine
 10
10.3151727831
 20
1.4238014439333346
 30
0.0
 11
10.7401727831
 21
1.4238014439333346
 31
0.0
  0
ARC
  5
b8df6847
330
1F
  8
Layer
100
AcDbEntity
  6
CONTINUOUS
100
AcDbCircle
 10
10.7401727831
 20
1.5238014439333338
 30
0.0
 40
0.09999999999999926
100
AcDbArc
 50
-90.0
 51
2.5444437451708225E-13
  0
LINE
  5
6764e421
330
1F
  8
Layer
100
AcDbEntity
  6
CONTINUOUS
100
AcDbLine
 10
10.8401727831
 20
1.5238014439333343
 30
0.0
 11
10.8401727831
 21
5.011801443933334
 31
0.0
  0
ARC
  5
2b619cfc
330
1F
  8
Layer
100
AcDbEntity
  6
CONTINUOUS
100
AcDbCircle
 10
10.7401727831
 20
5.011801443933335
 30
0.0
 40
0.09999999999999927
100
AcDbArc
 50
-5.088887490341645E-13
 51
90.0
  0
LINE
  5
ea6b1a3a
330
1F
  8
Layer
100
AcDbEntity
  6
CONTINUOUS
100
AcDbLine
 10
10.7401727831
 20
5.1118014439333335
 30
0.0
 11
10.7151727861
 21
5.1118014439333335
 31
0.0
  0
LINE
  5
324f0df3
330
1F
  8
Layer
100
AcDbEntity
  6
CONTINUOUS
100
AcDbLine
 10
10.7151727861
 20
5.1118014439333335
 30
0.0
 11
10.7151727861
 21
5.405804913633333
 31
0.0
  0
LINE
  5
84013145
330
1F
  8
Layer
100
AcDbEntity
  6
CONTINUOUS
100
AcDbLine
 10
9.9151728095
 20
5.405804913633333
 30
0.0
 11
9.5401728095
 21
5.405804913633333
 31
0.0
  0
LINE
  5
0509ac7d
330
1F
  8
Layer
100
AcDbEntity
  6
CONTINUOUS
100
AcDbLine
 10
9.5401728095
 20
5.405804913633333
 30
0.0
 11
9.5401728095
 21
5.1118014439333335
 31
0.0
  0
LINE
  5
8cc22d91
330
1F
  8
Layer
100
AcDbEntity
  6
CONTINUOUS
100
AcDbLine
 10
9.5401728095
 20
5.1118014439333335
 30
0.0
 11
9.515172806599999
 21
5.1118014439333335
 31
0.0
  0
ARC
  5
09c8c66a
330
1F
  8
Layer
100
AcDbEntity
  6
CONTINUOUS
100
AcDbCircle
 10
9.515172806599999
 20
5.011801443933334
 30
0.0
 40
0.09999999999999926
100
AcDbArc
 50
90.0
 51
180.0
  0
LINE
  5
cf87ce86
330
1F
  8
Layer
100
AcDbEntity
  6
CONTINUOUS
100
AcDbLine
 10
9.4151728066
 20
5.011801443933334
 30
0.0
 11
9.4151728066
 21
1.5238014439333343
 31
0.0
  0
ARC
  5
6321a421
330
1F
  8
Layer
100
AcDbEntity
  6
CONTINUOUS
100
AcDbCircle
 10
9.515172806599999
 20
1.5238014439333338
 30
0.0
 40
0.09999999999999927
100
AcDbArc
 50
179.99999999999974
 51
-90.0
  0
LINE
  5
c3e7614f
330
1F
  8
Layer
100
AcDbEntity
  6
CONTINUOUS
100
AcDbLine
 10
9.515172806599999
 20
1.4238014439333346
 30
0.0
 11
9.9401728066
 21
1.4238014439333346
 31
0.0
  0
ARC
  5
80ca0b0e
330
1F
  8
Layer
100
AcDbEntity
  6
CONTINUOUS
100
AcDbCircle
 10
9.940172806599998
 20
1.523801443933336
 30
0.0
 40
0.10000000000000152
100
AcDbArc
 50
-89.99999999999898
 51
-1.5266662471024663E-12
  0
LINE
  5
a55cd655
330
1F
  8
Layer
100
AcDbEntity
  6
CONTINUOUS
100
AcDbLine
 10
10.0401728066
 20
1.5238014439333334
 30
0.0
 11
10.0401728066
 21
5.011801443933333
 31
0.0
  0
ARC
  5
553a161b
330
1F
  8
Layer
100
AcDbEntity
  6
CONTINUOUS
100
AcDbCircle
 10
9.9401728066
 20
5.011801443933333
 30
0.0
 40
0.09999999999999927
100
AcDbArc
 50
0.0
 51
90.0
  0
LINE
  5
45c4746e
330
1F
  8
Layer
100
AcDbEntity
  6
CONTINUOUS
100
AcDbLine
 10
9.9401728066
 20
5.111801443933333
 30
0.0
 11
9.9151728095
 21
5.111801443933333
 31
0.0
  0
LINE
  5
69ea3754
330
1F
  8
Layer
100
AcDbEntity
  6
CONTINUOUS
100
AcDbLine
 10
9.9151728095
 20
5.111801443933333
 30
0.0
 11
9.9151728095
 21
5.405804913633333
 31
0.0
  0
LINE
  5
e87fb026
330
1F
  8
Layer
100
AcDbEntity
  6
CONTINUOUS
100
AcDbLine
 10
8.3151728565
 20
5.405804913633333
 30
0.0
 11
7.9401728565
 21
5.405804913633333
 31
0.0
  0
LINE
  5
80f7a34f
330
1F
  8
Layer
100
AcDbEntity
  6
CONTINUOUS
100
AcDbLine
 10
7.9401728565
 20
5.405804913633333
 30
0.0
 11
7.9401728565
 21
5.1118014439333335
 31
0.0
  0
LINE
  5
4c724319
330
1F
  8
Layer
100
AcDbEntity
  6
CONTINUOUS
100
AcDbLine
 10
7.9401728565
 20
5.1118014439333335
 30
0.0
 11
7.9151728535
 21
5.1118014439333335
 31
0.0
  0
ARC
  5
7b49675a
330
1F
  8
Layer
100
AcDbEntity
  6
CONTINUOUS
100
AcDbCircle
 10
7.9151728535
 20
5.011801443933334
 30
0.0
 40
0.09999999999999926
100
AcDbArc
 50
90.0
 51
180.0
  0
LINE
  5
1d30b521
330
1F
  8
Layer
100
AcDbEntity
  6
CONTINUOUS
100
AcDbLine
 10
7.8151728535
 20
5.011801443933334
 30
0.0
 11
7.8151728535
 21
1.5238014439333343
 31
0.0
  0
ARC
  5
ae563d0a
330
1F
  8
Layer
100
AcDbEntity
  6
CONTINUOUS
100
AcDbCircle
 10
7.9151728535
 20
1.5238014439333338
 30
0.0
 40
0.09999999999999927
100
AcDbArc
 50
179.99999999999974
 51
-90.0
  0
LINE
  5
2bb46737
330
1F
  8
Layer
100
AcDbEntity
  6
CONTINUOUS
100
AcDbLine
 10
7.9151728535
 20
1.4238014439333346
 30
0.0
 11
8.3401728535
 21
1.4238014439333346
 31
0.0
  0
ARC
  5
6b48354d
330
1F
  8
Layer
100
AcDbEntity
  6
CONTINUOUS
100
AcDbCircle
 10
8.340172853499999
 20
1.523801443933336
 30
0.0
 40
0.10000000000000152
100
AcDbArc
 50
-89.99999999999898
 51
-1.5266662471024663E-12
  0
LINE
  5
dcbbb9b8
330
1F
  8
Layer
100
AcDbEntity
  6
CONTINUOUS
100
AcDbLine
 10
8.4401728535
 20
1.5238014439333334
 30
0.0
 11
8.4401728535
 21
5.011801443933333
 31
0.0
  0
ARC
  5
760918de
330
1F
  8
Layer
100
AcDbEntity
  6
CONTINUOUS
100
AcDbCircle
 10
8.3401728535
 20
5.011801443933333
 30
0.0
 40
0.09999999999999927
100
AcDbArc
 50
0.0
 51
90.0
  0
LINE
  5
9151a952
330
1F
  8
Layer
100
AcDbEntity
  6
CONTINUOUS
100
AcDbLine
 10
8.3401728535
 20
5.111801443933333
 30
0.0
 11
8.3151728565
 21
5.111801443933333
 31
0.0
  0
LINE
  5
8cc0d792
330
1F
  8
Layer
100
AcDbEntity
  6
CONTINUOUS
100
AcDbLine
 10
8.3151728565
 20
5.111801443933333
 30
0.0
 11
8.3151728565
 21
5.405804913633333
 31
0.0
  0
LINE
  5
0e0ecb6f
330
1F
  8
Layer
100
AcDbEntity
  6
CONTINUOUS
100
AcDbLine
 10
9.115172832999999
 20
5.405804913633333
 30
0.0
 11
8.740172832999999
 21
5.405804913633333
 31
0.0
  0
LINE
  5
ff280a63
330
1F
  8
Layer
100
AcDbEntity
  6
CONTINUOUS
100
AcDbLine
 10
8.740172832999999
 20
5.405804913633333
 30
0.0
 11
8.740172832999999
 21
5.1118014439333335
 31
0.0
  0
LINE
  5
db8b2dd4
330
1F
  8
Layer
100
AcDbEntity
  6
CONTINUOUS
100
AcDbLine
 10
8.740172832999999
 20
5.1118014439333335
 30
0.0
 11
8.7151728301
 21
5.1118014439333335
 31
0.0
  0
ARC
  5
6a10bcc7
330
1F
  8
Layer
100
AcDbEntity
  6
CONTINUOUS
100
AcDbCircle
 10
8.7151728301
 20
5.011801443933334
 30
0.0
 40
0.09999999999999926
100
AcDbArc
 50
90.0
 51
180.0
  0
LINE
  5
0c3f4f64
330
1F
  8
Layer
100
AcDbEntity
  6
CONTINUOUS
100
AcDbLine
 10
8.6151728301
 20
5.011801443933334
 30
0.0
 11
8.6151728301
 21
1.5238014439333343
 31
0.0
  0
ARC
  5
f266857b
330
1F
  8
Layer
100
AcDbEntity
  6
CONTINUOUS
100
AcDbCircle
 10
8.7151728301
 20
1.5238014439333338
 30
0.0
 40
0.09999999999999927
100
AcDbArc
 50
179.99999999999974
 51
-90.0
  0
LINE
  5
f0c9e3cd
330
1F
  8
Layer
100
AcDbEntity
  6
CONTINUOUS
100
AcDbLine
 10
8.7151728301
 20
1.4238014439333346
 30
0.0
 11
9.1401728301
 21
1.4238014439333346
 31
0.0
  0
ARC
  5
8b6f0fb0
330
1F
  8
Layer
100
AcDbEntity
  6
CONTINUOUS
100
AcDbCircle
 10
9.140172830099997
 20
1.523801443933336
 30
0.0
 40
0.10000000000000152
100
AcDbArc
 50
-89.99999999999898
 51
-1.5266662471024663E-12
  0
LINE
  5
a8d28f30
330
1F
  8
Layer
100
AcDbEntity
  6
CONTINUOUS
100
AcDbLine
 10
9.240172830099999
 20
1.5238014439333334
 30
0.0
 11
9.240172830099999
 21
5.011801443933333
 31
0.0
  0
ARC
  5
6e16b6ca
330
1F
  8
Layer
100
AcDbEntity
  6
CONTINUOUS
100
AcDbCircle
 10
9.1401728301
 20
5.011801443933333
 30
0.0
 40
0.09999999999999927
100
AcDbArc
 50
0.0
 51
90.0
  0
LINE
  5
95052ef9
330
1F
  8
Layer
100
AcDbEntity
  6
CONTINUOUS
100
AcDbLine
 10
9.1401728301
 20
5.111801443933333
 30
0.0
 11
9.115172832999999
 21
5.111801443933333
 31
0.0
  0
LINE
  5
e2f98562
330
1F
  8
Layer
100
AcDbEntity
  6
CONTINUOUS
100
AcDbLine
 10
9.115172832999999
 20
5.111801443933333
 30
0.0
 11
9.115172832999999
 21
5.405804913633333
 31
0.0
  0
LINE
  5
bae040b3
330
1F
  8
Layer
100
AcDbEntity
  6
CONTINUOUS
100
AcDbLine
 10
11.6951268074
 20
14.310572534733334
 30
0.0
 11
11.4451268074
 21
14.310572534733334
 31
0.0
  0
LINE
  5
91d2c55f
330
1F
  8
Layer
100
AcDbEntity
  6
CONTINUOUS
100
AcDbLine
 10
11.4451268074
 20
14.310572534733334
 30
0.0
 11
11.6951268074
 21
14.310572534733334
 31
0.0
  0
LINE
  5
15cf76b7
330
1F
  8
Layer
100
AcDbEntity
  6
CONTINUOUS
100
AcDbLine
 10
11.1923494853
 20
13.979400002433334
 30
0.0
 11
11.1574298675
 21
14.009238680833333
 31
0.0
  0
LINE
  5
f463cabc
330
1F
  8
Layer
100
AcDbEntity
  6
CONTINUOUS
100
AcDbLine
 10
11.1574298675
 20
14.009238680833333
 30
0.0
 11
11.085373641
 21
13.889560488133334
 31
0.0
  0
LINE
  5
9d4c54e0
330
1F
  8
Layer
100
AcDbEntity
  6
CONTINUOUS
100
AcDbLine
 10
11.085373641
 20
13.889560488133334
 30
0.0
 11
11.1923494853
 21
13.979400002433334
 31
0.0
  0
LINE
  5
da191c45
330
1F
  8
Layer
100
AcDbEntity
  6
Continuous
100
AcDbLine
 10
2.676563218299999
 20
8.526968074133332
 30
0.0
 11
2.676563218299999
 21
8.513079185244443
 31
0.0
  0
LINE
  5
162ae437
330
1F
  8
Layer
100
AcDbEntity
  6
Continuous
100
AcDbLine
 10
2.676563218299999
 20
8.513079185244443
 30
0.0
 11
2.9379180406376766
 21
8.513079185244443
 31
0.0
  0
LINE
  5
df60ed55
330
1F
  8
Layer
100
AcDbEntity
  6
Continuous
100
AcDbLine
 10
2.9379180406376766
 20
8.513079185244443
 30
0.0
 11
3.131009587433056
 21
9.465151385701466
 31
0.0
  0
LINE
  5
87d55899
330
1F
  8
Layer
100
AcDbEntity
  6
Continuous
100
AcDbLine
 10
3.131009587433056
 20
9.465151385701466
 30
0.0
 11
3.103786055766944
 21
9.4706726411652
 31
0.0
  0
LINE
  5
610784e8
330
1F
  8
Layer
100
AcDbEntity
  6
Continuous
100
AcDbLine
 10
3.103786055766944
 20
9.4706726411652
 30
0.0
 11
2.915208395962322
 21
8.540856963022222
 31
0.0
  0
LINE
  5
96ca59c0
330
1F
  8
Layer
100
AcDbEntity
  6
Continuous
100
AcDbLine
 10
2.915208395962322
 20
8.540856963022222
 30
0.0
 11
2.676563218299999
 21
8.540856963022222
 31
0.0
  0
LINE
  5
a474ee7c
330
1F
  8
Layer
100
AcDbEntity
  6
Continuous
100
AcDbLine
 10
2.676563218299999
 20
8.540856963022222
 30
0.0
 11
2.676563218299999
 21
8.526968074133332
 31
0.0
  0
LINE
  5
7d41136a
330
1F
  8
Layer
100
AcDbEntity
  6
CONTINUOUS
100
AcDbLine
 10
3.0948901773
 20
9.472476831033333
 30
0.0
 11
3.139905465899999
 21
9.463347195933334
 31
0.0
  0
LINE
  5
60bf34fb
330
1F
  8
Layer
100
AcDbEntity
  6
CONTINUOUS
100
AcDbLine
 10
3.139905465899999
 20
9.463347195933334
 30
0.0
 11
3.1447867266999996
 21
9.602957879233333
 31
0.0
  0
LINE
  5
c9a7bd6c
330
1F
  8
Layer
100
AcDbEntity
  6
CONTINUOUS
100
AcDbLine
 10
3.1447867266999996
 20
9.602957879233333
 30
0.0
 11
3.0948901773
 21
9.472476831033333
 31
0.0
  0
LINE
  5
71411af4
330
1F
  8
Layer
100
AcDbEntity
  6
CONTINUOUS
100
AcDbLine
 10
11.085373641
 20
9.667957879233333
 30
0.0
 11
11.085373641
 21
19.267957879233332
 31
0.0
  0
LINE
  5
57151474
330
1F
  8
Layer
100
AcDbEntity
  6
CONTINUOUS
100
AcDbLine
 10
11.085373641
 20
19.267957879233332
 30
0.0
 11
1.485373640999999
 21
19.267957879233332
 31
0.0
  0
LINE
  5
138cf257
330
1F
  8
Layer
100
AcDbEntity
  6
CONTINUOUS
100
AcDbLine
 10
1.485373640999999
 20
19.267957879233332
 30
0.0
 11
1.485373640999999
 21
9.667957879233333
 31
0.0
  0
LINE
  5
697d0baf
330
1F
  8
Layer
100
AcDbEntity
  6
CONTINUOUS
100
AcDbLine
 10
1.485373640999999
 20
9.667957879233333
 30
0.0
 11
11.085373641
 21
9.667957879233333
 31
0.0
  0
LINE
  5
c5a7b477
330
1F
  8
Layer
100
AcDbEntity
  6
CONTINUOUS
100
AcDbLine
 10
10.7381728535
 20
9.668957879233334
 30
0.0
 11
10.317172853499999
 21
9.668957879233334
 31
0.0
  0
LINE
  5
4b45fb24
330
1F
  8
Layer
100
AcDbEntity
  6
CONTINUOUS
100
AcDbLine
 10
10.317172853499999
 20
9.668957879233334
 30
0.0
 11
10.317172853499999
 21
9.612957879233333
 31
0.0
  0
LINE
  5
bd7ad452
330
1F
  8
Layer
100
AcDbEntity
  6
CONTINUOUS
100
AcDbLine
 10
10.317172853499999
 20
9.612957879233333
 30
0.0
 11
10.7381728535
 21
9.612957879233333
 31
0.0
  0
LINE
  5
0441e247
330
1F
  8
Layer
100
AcDbEntity
  6
CONTINUOUS
100
AcDbLine
 10
10.7381728535
 20
9.612957879233333
 30
0.0
 11
10.7381728535
 21
9.668957879233334
 31
0.0
  0
LINE
  5
12144233
330
1F
  8
Layer
100
AcDbEntity
  6
CONTINUOUS
100
AcDbLine
 10
9.9381728535
 20
9.668957879233334
 30
0.0
 11
9.5171728535
 21
9.668957879233334
 31
0.0
  0
LINE
  5
1f0e803f
330
1F
  8
Layer
100
AcDbEntity
  6
CONTINUOUS
100
AcDbLine
 10
9.5171728535
 20
9.668957879233334
 30
0.0
 11
9.5171728535
 21
9.612957879233333
 31
0.0
  0
LINE
  5
290011ab
330
1F
  8
Layer
100
AcDbEntity
  6
CONTINUOUS
100
AcDbLine
 10
9.5171728535
 20
9.612957879233333
 30
0.0
 11
9.9381728535
 21
9.612957879233333
 31
0.0
  0
LINE
  5
b4438097
330
1F
  8
Layer
100
AcDbEntity
  6
CONTINUOUS
100
AcDbLine
 10
9.9381728535
 20
9.612957879233333
 30
0.0
 11
9.9381728535
 21
9.668957879233334
 31
0.0
  0
LINE
  5
55d66d1e
330
1F
  8
Layer
100
AcDbEntity
  6
CONTINUOUS
100
AcDbLine
 10
8.3381728535
 20
9.668957879233334
 30
0.0
 11
7.9171728535
 21
9.668957879233334
 31
0.0
  0
LINE
  5
7f620a1f
330
1F
  8
Layer
100
AcDbEntity
  6
CONTINUOUS
100
AcDbLine
 10
7.9171728535
 20
9.668957879233334
 30
0.0
 11
7.9171728535
 21
9.612957879233333
 31
0.0
  0
LINE
  5
bd41f67a
330
1F
  8
Layer
100
AcDbEntity
  6
CONTINUOUS
100
AcDbLine
 10
7.9171728535
 20
9.612957879233333
 30
0.0
 11
8.3381728535
 21
9.612957879233333
 31
0.0
  0
LINE
  5
256d3ed1
330
1F
  8
Layer
100
AcDbEntity
  6
CONTINUOUS
100
AcDbLine
 10
8.3381728535
 20
9.612957879233333
 30
0.0
 11
8.3381728535
 21
9.668957879233334
 31
0.0
  0
LINE
  5
22241a74
330
1F
  8
Layer
100
AcDbEntity
  6
CONTINUOUS
100
AcDbLine
 10
9.1381728535
 20
9.668957879233334
 30
0.0
 11
8.7171728535
 21
9.668957879233334
 31
0.0
  0
LINE
  5
f8237cec
330
1F
  8
Layer
100
AcDbEntity
  6
CONTINUOUS
100
AcDbLine
 10
8.7171728535
 20
9.668957879233334
 30
0.0
 11
8.7171728535
 21
9.612957879233333
 31
0.0
  0
LINE
  5
49356546
330
1F
  8
Layer
100
AcDbEntity
  6
CONTINUOUS
100
AcDbLine
 10
8.7171728535
 20
9.612957879233333
 30
0.0
 11
9.1381728535
 21
9.612957879233333
 31
0.0
  0
LINE
  5
53159076
330
1F
  8
Layer
100
AcDbEntity
  6
CONTINUOUS
100
AcDbLine
 10
9.1381728535
 20
9.612957879233333
 30
0.0
 11
9.1381728535
 21
9.668957879233334
 31
0.0
  0
LINE
  5
10dac33b
330
1F
  8
Layer
100
AcDbEntity
  6
CONTINUOUS
100
AcDbLine
 10
10.3401727861
 20
9.602957879233333
 30
0.0
 11
10.3401728535
 21
9.282957879233333
 31
0.0
  0
LINE
  5
3559856e
330
1F
  8
Layer
100
AcDbEntity
  6
CONTINUOUS
100
AcDbLine
 10
10.3401728535
 20
9.282957879233333
 30
0.0
 11
10.7151728535
 21
9.282957879233333
 31
0.0
  0
LINE
  5
3e022dcf
330
1F
  8
Layer
100
AcDbEntity
  6
CONTINUOUS
100
AcDbLine
 10
10.7151728535
 20
9.282957879233333
 30
0.0
 11
10.7151727861
 21
9.602957879233333
 31
0.0
  0
LINE
  5
d9b2f373
330
1F
  8
Layer
100
AcDbEntity
  6
CONTINUOUS
100
AcDbLine
 10
10.7151727861
 20
9.602957879233333
 30
0.0
 11
10.3401727861
 21
9.602957879233333
 31
0.0
  0
LINE
  5
847474ab
330
1F
  8
Layer
100
AcDbEntity
  6
CONTINUOUS
100
AcDbLine
 10
9.5401728095
 20
9.602957879233333
 30
0.0
 11
9.5401728535
 21
9.282957879233333
 31
0.0
  0
LINE
  5
bb31ef3d
330
1F
  8
Layer
100
AcDbEntity
  6
CONTINUOUS
100
AcDbLine
 10
9.5401728535
 20
9.282957879233333
 30
0.0
 11
9.9151728535
 21
9.282957879233333
 31
0.0
  0
LINE
  5
4c34fe86
330
1F
  8
Layer
100
AcDbEntity
  6
CONTINUOUS
100
AcDbLine
 10
9.9151728535
 20
9.282957879233333
 30
0.0
 11
9.9151728095
 21
9.602957879233333
 31
0.0
  0
LINE
  5
1855c603
330
1F
  8
Layer
100
AcDbEntity
  6
CONTINUOUS
100
AcDbLine
 10
9.9151728095
 20
9.602957879233333
 30
0.0
 11
9.5401728095
 21
9.602957879233333
 31
0.0
  0
LINE
  5
98997ddb
330
1F
  8
Layer
100
AcDbEntity
  6
CONTINUOUS
100
AcDbLine
 10
7.9401728565
 20
9.602957879233333
 30
0.0
 11
7.9401728565
 21
9.282957879233333
 31
0.0
  0
LINE
  5
784002eb
330
1F
  8
Layer
100
AcDbEntity
  6
CONTINUOUS
100
AcDbLine
 10
7.9401728565
 20
9.282957879233333
 30
0.0
 11
8.3151728565
 21
9.282957879233333
 31
0.0
  0
LINE
  5
7c04f820
330
1F
  8
Layer
100
AcDbEntity
  6
CONTINUOUS
100
AcDbLine
 10
8.3151728565
 20
9.282957879233333
 30
0.0
 11
8.3151728565
 21
9.602957879233333
 31
0.0
  0
LINE
  5
e5962371
330
1F
  8
Layer
100
AcDbEntity
  6
CONTINUOUS
100
AcDbLine
 10
8.3151728565
 20
9.602957879233333
 30
0.0
 11
7.9401728565
 21
9.602957879233333
 31
0.0
  0
LINE
  5
69454d0d
330
1F
  8
Layer
100
AcDbEntity
  6
CONTINUOUS
100
AcDbLine
 10
8.740172832999999
 20
9.602957879233333
 30
0.0
 11
8.740172853499999
 21
9.282957879233333
 31
0.0
  0
LINE
  5
8035613f
330
1F
  8
Layer
100
AcDbEntity
  6
CONTINUOUS
100
AcDbLine
 10
8.740172853499999
 20
9.282957879233333
 30
0.0
 11
9.115172853499999
 21
9.282957879233333
 31
0.0
  0
LINE
  5
69b69413
330
1F
  8
Layer
100
AcDbEntity
  6
CONTINUOUS
100
AcDbLine
 10
9.115172853499999
 20
9.282957879233333
 30
0.0
 11
9.115172832999999
 21
9.602957879233333
 31
0.0
  0
LINE
  5
d3e1dd15
330
1F
  8
Layer
100
AcDbEntity
  6
CONTINUOUS
100
AcDbLine
 10
9.115172832999999
 20
9.602957879233333
 30
0.0
 11
8.740172832999999
 21
9.602957879233333
 31
0.0
  0
LINE
  5
2380ee60
330
1F
  8
Layer
100
AcDbEntity
  6
Continuous
100
AcDbLine
 10
7.644310648799999
 20
9.602957879233333
 30
0.0
 11
7.644310648799999
 21
9.589068990344444
 31
0.0
  0
LINE
  5
dfc153eb
330
1F
  8
Layer
100
AcDbEntity
  6
Continuous
100
AcDbLine
 10
7.644310648799999
 20
9.589068990344444
 30
0.0
 11
1.3843106487999997
 21
9.589068990344444
 31
0.0
  0
LINE
  5
d425f751
330
1F
  8
Layer
100
AcDbEntity
  6
Continuous
100
AcDbLine
 10
1.3843106487999997
 20
9.589068990344444
 30
0.0
 11
1.3843106487999997
 21
9.616846768122222
 31
0.0
  0
LINE
  5
384bf4c5
330
1F
  8
Layer
100
AcDbEntity
  6
Continuous
100
AcDbLine
 10
1.3843106487999997
 20
9.616846768122222
 30
0.0
 11
7.644310648799999
 21
9.616846768122222
 31
0.0
  0
LINE
  5
9412382b
330
1F
  8
Layer
100
AcDbEntity
  6
Continuous
100
AcDbLine
 10
7.644310648799999
 20
9.616846768122222
 30
0.0
 11
7.644310648799999
 21
9.602957879233333
 31
0.0
  0
LINE
  5
5cc84564
330
1F
  8
Layer
100
AcDbEntity
  6
CONTINUOUS
100
AcDbLine
 10
10.7151727861
 20
9.602957879233333
 30
0.0
 11
10.7401727831
 21
9.602957879233333
 31
0.0
  0
LINE
  5
97d0d3b2
330
1F
  8
Layer
100
AcDbEntity
  6
CONTINUOUS
100
AcDbLine
 10
10.7401727831
 20
9.602957879233333
 30
0.0
 11
10.3151727831
 21
9.602957879233333
 31
0.0
  0
LINE
  5
395f52b6
330
1F
  8
Layer
100
AcDbEntity
  6
CONTINUOUS
100
AcDbLine
 10
10.3151727831
 20
9.602957879233333
 30
0.0
 11
10.3401727861
 21
9.602957879233333
 31
0.0
  0
LINE
  5
fad9ae13
330
1F
  8
Layer
100
AcDbEntity
  6
CONTINUOUS
100
AcDbLine
 10
10.3401727861
 20
9.602957879233333
 30
0.0
 11
10.7151727861
 21
9.602957879233333
 31
0.0
  0
LINE
  5
9c6abc1f
330
1F
  8
Layer
100
AcDbEntity
  6
CONTINUOUS
100
AcDbLine
 10
9.9151728095
 20
9.602957879233333
 30
0.0
 11
9.5401728095
 21
9.602957879233333
 31
0.0
  0
LINE
  5
cf6ec21b
330
1F
  8
Layer
100
AcDbEntity
  6
CONTINUOUS
100
AcDbLine
 10
9.5401728095
 20
9.602957879233333
 30
0.0
 11
9.515172806599999
 21
9.602957879233333
 31
0.0
  0
LINE
  5
19ceae89
330
1F
  8
Layer
100
AcDbEntity
  6
CONTINUOUS
100
AcDbLine
 10
9.515172806599999
 20
9.602957879233333
 30
0.0
 11
9.9401728066
 21
9.602957879233333
 31
0.0
  0
LINE
  5
6fbcdae6
330
1F
  8
Layer
100
AcDbEntity
  6
CONTINUOUS
100
AcDbLine
 10
9.9401728066
 20
9.602957879233333
 30
0.0
 11
9.9151728095
 21
9.602957879233333
 31
0.0
  0
LINE
  5
c013b1de
330
1F
  8
Layer
100
AcDbEntity
  6
CONTINUOUS
100
AcDbLine
 10
8.3151728565
 20
9.602957879233333
 30
0.0
 11
8.3401728535
 21
9.602957879233333
 31
0.0
  0
LINE
  5
967fd817
330
1F
  8
Layer
100
AcDbEntity
  6
CONTINUOUS
100
AcDbLine
 10
8.3401728535
 20
9.602957879233333
 30
0.0
 11
7.9151728535
 21
9.602957879233333
 31
0.0
  0
LINE
  5
b1744ce8
330
1F
  8
Layer
100
AcDbEntity
  6
CONTINUOUS
100
AcDbLine
 10
7.9151728535
 20
9.602957879233333
 30
0.0
 11
7.9401728565
 21
9.602957879233333
 31
0.0
  0
LINE
  5
8a696d4c
330
1F
  8
Layer
100
AcDbEntity
  6
CONTINUOUS
100
AcDbLine
 10
7.9401728565
 20
9.602957879233333
 30
0.0
 11
8.3151728565
 21
9.602957879233333
 31
0.0
  0
LINE
  5
d917cf10
330
1F
  8
Layer
100
AcDbEntity
  6
CONTINUOUS
100
AcDbLine
 10
9.115172832999999
 20
9.602957879233333
 30
0.0
 11
9.1401728301
 21
9.602957879233333
 31
0.0
  0
LINE
  5
599165dc
330
1F
  8
Layer
100
AcDbEntity
  6
CONTINUOUS
100
AcDbLine
 10
9.1401728301
 20
9.602957879233333
 30
0.0
 11
8.7151728301
 21
9.602957879233333
 31
0.0
  0
LINE
  5
59b30504
330
1F
  8
Layer
100
AcDbEntity
  6
CONTINUOUS
100
AcDbLine
 10
8.7151728301
 20
9.602957879233333
 30
0.0
 11
8.740172832999999
 21
9.602957879233333
 31
0.0
  0
LINE
  5
648b766f
330
1F
  8
Layer
100
AcDbEntity
  6
CONTINUOUS
100
AcDbLine
 10
8.740172832999999
 20
9.602957879233333
 30
0.0
 11
9.115172832999999
 21
9.602957879233333
 31
0.0
  0
LINE
  5
d3523ea7
330
1F
  8
Layer
100
AcDbEntity
  6
CONTINUOUS
100
AcDbLine
 10
7.685373641
 20
9.667957879233333
 30
0.0
 11
11.085373641
 21
9.667957879233333
 31
0.0
  0
LINE
  5
5574f703
330
1F
  8
Layer
100
AcDbEntity
  6
CONTINUOUS
100
AcDbLine
 10
11.085373641
 20
9.667957879233333
 30
0.0
 11
1.485373640999999
 21
9.667957879233333
 31
0.0
  0
LINE
  5
a0607c86
330
1F
  8
Layer
100
AcDbEntity
  6
CONTINUOUS
100
AcDbLine
 10
1.485373640999999
 20
9.667957879233333
 30
0.0
 11
7.685373641
 21
9.667957879233333
 31
0.0
  0
LINE
  5
41006780
330
1F
  8
Layer
100
AcDbEntity
  6
CONTINUOUS
100
AcDbLine
 10
10.7401727831
 20
9.602957879233333
 30
0.0
 11
10.8401727831
 21
9.602957879233333
 31
0.0
  0
LINE
  5
8bc3493c
330
1F
  8
Layer
100
AcDbEntity
  6
CONTINUOUS
100
AcDbLine
 10
10.8401727831
 20
9.602957879233333
 30
0.0
 11
10.7401727831
 21
9.602957879233333
 31
0.0
  0
LINE
  5
4017b905
330
1F
  8
Layer
100
AcDbEntity
  6
CONTINUOUS
100
AcDbLine
 10
10.3151727831
 20
9.602957879233333
 30
0.0
 11
10.2151727831
 21
9.602957879233333
 31
0.0
  0
LINE
  5
637d8893
330
1F
  8
Layer
100
AcDbEntity
  6
CONTINUOUS
100
AcDbLine
 10
10.2151727831
 20
9.602957879233333
 30
0.0
 11
10.3151727831
 21
9.602957879233333
 31
0.0
  0
LINE
  5
882aeff8
330
1F
  8
Layer
100
AcDbEntity
  6
CONTINUOUS
100
AcDbLine
 10
9.9401728066
 20
9.602957879233333
 30
0.0
 11
10.0401728066
 21
9.602957879233333
 31
0.0
  0
LINE
  5
3d518c1b
330
1F
  8
Layer
100
AcDbEntity
  6
CONTINUOUS
100
AcDbLine
 10
10.0401728066
 20
9.602957879233333
 30
0.0
 11
9.9401728066
 21
9.602957879233333
 31
0.0
  0
LINE
  5
fb90044e
330
1F
  8
Layer
100
AcDbEntity
  6
CONTINUOUS
100
AcDbLine
 10
9.515172806599999
 20
9.602957879233333
 30
0.0
 11
9.4151728066
 21
9.602957879233333
 31
0.0
  0
LINE
  5
9c760550
330
1F
  8
Layer
100
AcDbEntity
  6
CONTINUOUS
100
AcDbLine
 10
9.4151728066
 20
9.602957879233333
 30
0.0
 11
9.515172806599999
 21
9.602957879233333
 31
0.0
  0
LINE
  5
deb39ef6
330
1F
  8
Layer
100
AcDbEntity
  6
CONTINUOUS
100
AcDbLine
 10
8.3401728535
 20
9.602957879233333
 30
0.0
 11
8.4401728535
 21
9.602957879233333
 31
0.0
  0
LINE
  5
2c7c662b
330
1F
  8
Layer
100
AcDbEntity
  6
CONTINUOUS
100
AcDbLine
 10
8.4401728535
 20
9.602957879233333
 30
0.0
 11
8.3401728535
 21
9.602957879233333
 31
0.0
  0
LINE
  5
6c10e256
330
1F
  8
Layer
100
AcDbEntity
  6
CONTINUOUS
100
AcDbLine
 10
7.9151728535
 20
9.602957879233333
 30
0.0
 11
7.8151728535
 21
9.602957879233333
 31
0.0
  0
LINE
  5
24de9d25
330
1F
  8
Layer
100
AcDbEntity
  6
CONTINUOUS
100
AcDbLine
 10
7.8151728535
 20
9.602957879233333
 30
0.0
 11
7.9151728535
 21
9.602957879233333
 31
0.0
  0
LINE
  5
38f8a988
330
1F
  8
Layer
100
AcDbEntity
  6
CONTINUOUS
100
AcDbLine
 10
9.1401728301
 20
9.602957879233333
 30
0.0
 11
9.240172830099999
 21
9.602957879233333
 31
0.0
  0
LINE
  5
845034da
330
1F
  8
Layer
100
AcDbEntity
  6
CONTINUOUS
100
AcDbLine
 10
9.240172830099999
 20
9.602957879233333
 30
0.0
 11
9.1401728301
 21
9.602957879233333
 31
0.0
  0
LINE
  5
5549fb7e
330
1F
  8
Layer
100
AcDbEntity
  6
CONTINUOUS
100
AcDbLine
 10
8.7151728301
 20
9.602957879233333
 30
0.0
 11
8.615172830099999
 21
9.602957879233333
 31
0.0
  0
LINE
  5
cb4804b0
330
1F
  8
Layer
100
AcDbEntity
  6
CONTINUOUS
100
AcDbLine
 10
8.615172830099999
 20
9.602957879233333
 30
0.0
 11
8.7151728301
 21
9.602957879233333
 31
0.0
  0
LINE
  5
cbf3be47
330
1F
  8
Layer
100
AcDbEntity
  6
CONTINUOUS
100
AcDbLine
 10
11.085373641
 20
1.1687049136333334
 30
0.0
 11
7.685373641
 21
1.1687049136333334
 31
0.0
  0
LINE
  5
98f373f8
330
1F
  8
Layer
100
AcDbEntity
  6
CONTINUOUS
100
AcDbLine
 10
7.685373641
 20
1.1687049136333334
 30
0.0
 11
7.685373641
 21
1.1688049136333332
 31
0.0
  0
LINE
  5
40284b30
330
1F
  8
Layer
100
AcDbEntity
  6
CONTINUOUS
100
AcDbLine
 10
7.685373641
 20
1.1688049136333332
 30
0.0
 11
1.485373640999999
 21
1.1688049136333332
 31
0.0
  0
LINE
  5
4ab56054
330
1F
  8
Layer
100
AcDbEntity
  6
CONTINUOUS
100
AcDbLine
 10
1.485373640999999
 20
1.1688049136333332
 30
0.0
 11
1.485373640999999
 21
1.1063049136333332
 31
0.0
  0
LINE
  5
e2311144
330
1F
  8
Layer
100
AcDbEntity
  6
CONTINUOUS
100
AcDbLine
 10
1.485373640999999
 20
1.1063049136333332
 30
0.0
 11
11.085373641
 21
1.1063049136333332
 31
0.0
  0
LINE
  5
be17466f
330
1F
  8
Layer
100
AcDbEntity
  6
CONTINUOUS
100
AcDbLine
 10
11.085373641
 20
1.1063049136333332
 30
0.0
 11
11.085373641
 21
1.1687049136333334
 31
0.0
  0
LINE
  5
df9bcd02
330
1F
  8
Layer
100
AcDbEntity
  6
Continuous
100
AcDbLine
 10
1.5273367360999996
 20
1.1688049136333332
 30
0.0
 11
1.5371576636164794
 21
1.1589839861168534
 31
0.0
  0
LINE
  5
5e21a5d4
330
1F
  8
Layer
100
AcDbEntity
  6
Continuous
100
AcDbLine
 10
1.5371576636164794
 20
1.1589839861168534
 30
0.0
 11
1.4951945684164796
 21
1.1170208909168535
 31
0.0
  0
LINE
  5
97f340bd
330
1F
  8
Layer
100
AcDbEntity
  6
Continuous
100
AcDbLine
 10
1.4951945684164796
 20
1.1170208909168535
 30
0.0
 11
1.47555271338352
 21
1.136662745949813
 31
0.0
  0
LINE
  5
767741b8
330
1F
  8
Layer
100
AcDbEntity
  6
Continuous
100
AcDbLine
 10
1.47555271338352
 20
1.136662745949813
 30
0.0
 11
1.5175158085835199
 21
1.178625841149813
 31
0.0
  0
LINE
  5
64ba7662
330
1F
  8
Layer
100
AcDbEntity
  6
Continuous
100
AcDbLine
 10
1.5175158085835199
 20
1.178625841149813
 30
0.0
 11
1.5273367360999996
 21
1.1688049136333332
 31
0.0
  0
LINE
  5
ad443396
330
1F
  8
Layer
100
AcDbEntity
  6
Continuous
100
AcDbLine
 10
1.6157250836999992
 20
1.1688049136333332
 30
0.0
 11
1.625546011216479
 21
1.1589839861168534
 31
0.0
  0
LINE
  5
00bc3ad6
330
1F
  8
Layer
100
AcDbEntity
  6
Continuous
100
AcDbLine
 10
1.625546011216479
 20
1.1589839861168534
 30
0.0
 11
1.563046011216479
 21
1.0964839861168534
 31
0.0
  0
LINE
  5
c12376e5
330
1F
  8
Layer
100
AcDbEntity
  6
Continuous
100
AcDbLine
 10
1.563046011216479
 20
1.0964839861168534
 30
0.0
 11
1.5434041561835194
 21
1.116125841149813
 31
0.0
  0
LINE
  5
ce9d94bb
330
1F
  8
Layer
100
AcDbEntity
  6
Continuous
100
AcDbLine
 10
1.5434041561835194
 20
1.116125841149813
 30
0.0
 11
1.6059041561835194
 21
1.178625841149813
 31
0.0
  0
LINE
  5
02418672
330
1F
  8
Layer
100
AcDbEntity
  6
Continuous
100
AcDbLine
 10
1.6059041561835194
 20
1.178625841149813
 30
0.0
 11
1.6157250836999992
 21
1.1688049136333332
 31
0.0
  0
LINE
  5
fac14f20
330
1F
  8
Layer
100
AcDbEntity
  6
Continuous
100
AcDbLine
 10
1.7041134313999997
 20
1.1688049136333332
 30
0.0
 11
1.7139343589164795
 21
1.1589839861168534
 31
0.0
  0
LINE
  5
1061f102
330
1F
  8
Layer
100
AcDbEntity
  6
Continuous
100
AcDbLine
 10
1.7139343589164795
 20
1.1589839861168534
 30
0.0
 11
1.6514343589164795
 21
1.0964839861168534
 31
0.0
  0
LINE
  5
689f6711
330
1F
  8
Layer
100
AcDbEntity
  6
Continuous
100
AcDbLine
 10
1.6514343589164795
 20
1.0964839861168534
 30
0.0
 11
1.63179250388352
 21
1.116125841149813
 31
0.0
  0
LINE
  5
858982b4
330
1F
  8
Layer
100
AcDbEntity
  6
Continuous
100
AcDbLine
 10
1.63179250388352
 20
1.116125841149813
 30
0.0
 11
1.69429250388352
 21
1.178625841149813
 31
0.0
  0
LINE
  5
ee5674f8
330
1F
  8
Layer
100
AcDbEntity
  6
Continuous
100
AcDbLine
 10
1.69429250388352
 20
1.178625841149813
 30
0.0
 11
1.7041134313999997
 21
1.1688049136333332
 31
0.0
  0
LINE
  5
b4f1469f
330
1F
  8
Layer
100
AcDbEntity
  6
Continuous
100
AcDbLine
 10
1.7925017789999993
 20
1.1688049136333332
 30
0.0
 11
1.802322706516479
 21
1.1589839861168534
 31
0.0
  0
LINE
  5
c06cdf5d
330
1F
  8
Layer
100
AcDbEntity
  6
Continuous
100
AcDbLine
 10
1.802322706516479
 20
1.1589839861168534
 30
0.0
 11
1.739822706516479
 21
1.0964839861168534
 31
0.0
  0
LINE
  5
316bf78c
330
1F
  8
Layer
100
AcDbEntity
  6
Continuous
100
AcDbLine
 10
1.739822706516479
 20
1.0964839861168534
 30
0.0
 11
1.7201808514835195
 21
1.116125841149813
 31
0.0
  0
LINE
  5
7501332a
330
1F
  8
Layer
100
AcDbEntity
  6
Continuous
100
AcDbLine
 10
1.7201808514835195
 20
1.116125841149813
 30
0.0
 11
1.7826808514835195
 21
1.178625841149813
 31
0.0
  0
LINE
  5
0cbf5a99
330
1F
  8
Layer
100
AcDbEntity
  6
Continuous
100
AcDbLine
 10
1.7826808514835195
 20
1.178625841149813
 30
0.0
 11
1.7925017789999993
 21
1.1688049136333332
 31
0.0
  0
LINE
  5
3de5161a
330
1F
  8
Layer
100
AcDbEntity
  6
Continuous
100
AcDbLine
 10
1.8808901266999998
 20
1.1688049136333332
 30
0.0
 11
1.8907110542164796
 21
1.1589839861168534
 31
0.0
  0
LINE
  5
7f467d3e
330
1F
  8
Layer
100
AcDbEntity
  6
Continuous
100
AcDbLine
 10
1.8907110542164796
 20
1.1589839861168534
 30
0.0
 11
1.8282110542164796
 21
1.0964839861168534
 31
0.0
  0
LINE
  5
23361392
330
1F
  8
Layer
100
AcDbEntity
  6
Continuous
100
AcDbLine
 10
1.8282110542164796
 20
1.0964839861168534
 30
0.0
 11
1.80856919918352
 21
1.116125841149813
 31
0.0
  0
LINE
  5
ab8823ad
330
1F
  8
Layer
100
AcDbEntity
  6
Continuous
100
AcDbLine
 10
1.80856919918352
 20
1.116125841149813
 30
0.0
 11
1.87106919918352
 21
1.178625841149813
 31
0.0
  0
LINE
  5
0e710f94
330
1F
  8
Layer
100
AcDbEntity
  6
Continuous
100
AcDbLine
 10
1.87106919918352
 20
1.178625841149813
 30
0.0
 11
1.8808901266999998
 21
1.1688049136333332
 31
0.0
  0
LINE
  5
956810f8
330
1F
  8
Layer
100
AcDbEntity
  6
Continuous
100
AcDbLine
 10
1.9692784742999994
 20
1.1688049136333332
 30
0.0
 11
1.9790994018164791
 21
1.1589839861168534
 31
0.0
  0
LINE
  5
2816fb19
330
1F
  8
Layer
100
AcDbEntity
  6
Continuous
100
AcDbLine
 10
1.9790994018164791
 20
1.1589839861168534
 30
0.0
 11
1.9165994018164791
 21
1.0964839861168534
 31
0.0
  0
LINE
  5
117c2a4b
330
1F
  8
Layer
100
AcDbEntity
  6
Continuous
100
AcDbLine
 10
1.9165994018164791
 20
1.0964839861168534
 30
0.0
 11
1.8969575467835196
 21
1.116125841149813
 31
0.0
  0
LINE
  5
552eb661
330
1F
  8
Layer
100
AcDbEntity
  6
Continuous
100
AcDbLine
 10
1.8969575467835196
 20
1.116125841149813
 30
0.0
 11
1.9594575467835196
 21
1.178625841149813
 31
0.0
  0
LINE
  5
183b40fa
330
1F
  8
Layer
100
AcDbEntity
  6
Continuous
100
AcDbLine
 10
1.9594575467835196
 20
1.178625841149813
 30
0.0
 11
1.9692784742999994
 21
1.1688049136333332
 31
0.0
  0
LINE
  5
b07ce9dd
330
1F
  8
Layer
100
AcDbEntity
  6
Continuous
100
AcDbLine
 10
2.057666822
 20
1.1688049136333332
 30
0.0
 11
2.06748774951648
 21
1.1589839861168534
 31
0.0
  0
LINE
  5
dd3e3059
330
1F
  8
Layer
100
AcDbEntity
  6
Continuous
100
AcDbLine
 10
2.06748774951648
 20
1.1589839861168534
 30
0.0
 11
2.00498774951648
 21
1.0964839861168534
 31
0.0
  0
LINE
  5
e57a9af5
330
1F
  8
Layer
100
AcDbEntity
  6
Continuous
100
AcDbLine
 10
2.00498774951648
 20
1.0964839861168534
 30
0.0
 11
1.98534589448352
 21
1.116125841149813
 31
0.0
  0
LINE
  5
473f59c2
330
1F
  8
Layer
100
AcDbEntity
  6
Continuous
100
AcDbLine
 10
1.98534589448352
 20
1.116125841149813
 30
0.0
 11
2.04784589448352
 21
1.178625841149813
 31
0.0
  0
LINE
  5
4af9049e
330
1F
  8
Layer
100
AcDbEntity
  6
Continuous
100
AcDbLine
 10
2.04784589448352
 20
1.178625841149813
 30
0.0
 11
2.057666822
 21
1.1688049136333332
 31
0.0
  0
LINE
  5
5653e90a
330
1F
  8
Layer
100
AcDbEntity
  6
Continuous
100
AcDbLine
 10
2.1460551695999994
 20
1.1688049136333332
 30
0.0
 11
2.1558760971164794
 21
1.1589839861168534
 31
0.0
  0
LINE
  5
c38d7c50
330
1F
  8
Layer
100
AcDbEntity
  6
Continuous
100
AcDbLine
 10
2.1558760971164794
 20
1.1589839861168534
 30
0.0
 11
2.0933760971164794
 21
1.0964839861168534
 31
0.0
  0
LINE
  5
f6070c7d
330
1F
  8
Layer
100
AcDbEntity
  6
Continuous
100
AcDbLine
 10
2.0933760971164794
 20
1.0964839861168534
 30
0.0
 11
2.0737342420835194
 21
1.116125841149813
 31
0.0
  0
LINE
  5
6a5d09ca
330
1F
  8
Layer
100
AcDbEntity
  6
Continuous
100
AcDbLine
 10
2.0737342420835194
 20
1.116125841149813
 30
0.0
 11
2.1362342420835194
 21
1.178625841149813
 31
0.0
  0
LINE
  5
16325335
330
1F
  8
Layer
100
AcDbEntity
  6
Continuous
100
AcDbLine
 10
2.1362342420835194
 20
1.178625841149813
 30
0.0
 11
2.1460551695999994
 21
1.1688049136333332
 31
0.0
  0
LINE
  5
35b3aa92
330
1F
  8
Layer
100
AcDbEntity
  6
Continuous
100
AcDbLine
 10
2.2344435173
 20
1.1688049136333332
 30
0.0
 11
2.24426444481648
 21
1.1589839861168534
 31
0.0
  0
LINE
  5
e6f7001d
330
1F
  8
Layer
100
AcDbEntity
  6
Continuous
100
AcDbLine
 10
2.24426444481648
 20
1.1589839861168534
 30
0.0
 11
2.18176444481648
 21
1.0964839861168534
 31
0.0
  0
LINE
  5
68b29a75
330
1F
  8
Layer
100
AcDbEntity
  6
Continuous
100
AcDbLine
 10
2.18176444481648
 20
1.0964839861168534
 30
0.0
 11
2.16212258978352
 21
1.116125841149813
 31
0.0
  0
LINE
  5
9a16181d
330
1F
  8
Layer
100
AcDbEntity
  6
Continuous
100
AcDbLine
 10
2.16212258978352
 20
1.116125841149813
 30
0.0
 11
2.22462258978352
 21
1.178625841149813
 31
0.0
  0
LINE
  5
984e5892
330
1F
  8
Layer
100
AcDbEntity
  6
Continuous
100
AcDbLine
 10
2.22462258978352
 20
1.178625841149813
 30
0.0
 11
2.2344435173
 21
1.1688049136333332
 31
0.0
  0
LINE
  5
8aae8eef
330
1F
  8
Layer
100
AcDbEntity
  6
Continuous
100
AcDbLine
 10
2.3228318648999995
 20
1.1688049136333332
 30
0.0
 11
2.3326527924164795
 21
1.1589839861168534
 31
0.0
  0
LINE
  5
a69b2bae
330
1F
  8
Layer
100
AcDbEntity
  6
Continuous
100
AcDbLine
 10
2.3326527924164795
 20
1.1589839861168534
 30
0.0
 11
2.2701527924164795
 21
1.0964839861168534
 31
0.0
  0
LINE
  5
46897dbb
330
1F
  8
Layer
100
AcDbEntity
  6
Continuous
100
AcDbLine
 10
2.2701527924164795
 20
1.0964839861168534
 30
0.0
 11
2.2505109373835195
 21
1.116125841149813
 31
0.0
  0
LINE
  5
5121bbfc
330
1F
  8
Layer
100
AcDbEntity
  6
Continuous
100
AcDbLine
 10
2.2505109373835195
 20
1.116125841149813
 30
0.0
 11
2.3130109373835195
 21
1.178625841149813
 31
0.0
  0
LINE
  5
feeb6b3e
330
1F
  8
Layer
100
AcDbEntity
  6
Continuous
100
AcDbLine
 10
2.3130109373835195
 20
1.178625841149813
 30
0.0
 11
2.3228318648999995
 21
1.1688049136333332
 31
0.0
  0
LINE
  5
0e3f5e5a
330
1F
  8
Layer
100
AcDbEntity
  6
Continuous
100
AcDbLine
 10
2.4112202126
 20
1.1688049136333332
 30
0.0
 11
2.42104114011648
 21
1.1589839861168534
 31
0.0
  0
LINE
  5
c7b7525f
330
1F
  8
Layer
100
AcDbEntity
  6
Continuous
100
AcDbLine
 10
2.42104114011648
 20
1.1589839861168534
 30
0.0
 11
2.35854114011648
 21
1.0964839861168534
 31
0.0
  0
LINE
  5
38371a4c
330
1F
  8
Layer
100
AcDbEntity
  6
Continuous
100
AcDbLine
 10
2.35854114011648
 20
1.0964839861168534
 30
0.0
 11
2.33889928508352
 21
1.116125841149813
 31
0.0
  0
LINE
  5
1064cfd4
330
1F
  8
Layer
100
AcDbEntity
  6
Continuous
100
AcDbLine
 10
2.33889928508352
 20
1.116125841149813
 30
0.0
 11
2.40139928508352
 21
1.178625841149813
 31
0.0
  0
LINE
  5
55eb8479
330
1F
  8
Layer
100
AcDbEntity
  6
Continuous
100
AcDbLine
 10
2.40139928508352
 20
1.178625841149813
 30
0.0
 11
2.4112202126
 21
1.1688049136333332
 31
0.0
  0
LINE
  5
5f2cf3e5
330
1F
  8
Layer
100
AcDbEntity
  6
Continuous
100
AcDbLine
 10
2.4996085601999996
 20
1.1688049136333332
 30
0.0
 11
2.5094294877164796
 21
1.1589839861168534
 31
0.0
  0
LINE
  5
5d912723
330
1F
  8
Layer
100
AcDbEntity
  6
Continuous
100
AcDbLine
 10
2.5094294877164796
 20
1.1589839861168534
 30
0.0
 11
2.4469294877164796
 21
1.0964839861168534
 31
0.0
  0
LINE
  5
3fd96293
330
1F
  8
Layer
100
AcDbEntity
  6
Continuous
100
AcDbLine
 10
2.4469294877164796
 20
1.0964839861168534
 30
0.0
 11
2.4272876326835195
 21
1.116125841149813
 31
0.0
  0
LINE
  5
cf6a891f
330
1F
  8
Layer
100
AcDbEntity
  6
Continuous
100
AcDbLine
 10
2.4272876326835195
 20
1.116125841149813
 30
0.0
 11
2.4897876326835195
 21
1.178625841149813
 31
0.0
  0
LINE
  5
6ce7d98e
330
1F
  8
Layer
100
AcDbEntity
  6
Continuous
100
AcDbLine
 10
2.4897876326835195
 20
1.178625841149813
 30
0.0
 11
2.4996085601999996
 21
1.1688049136333332
 31
0.0
  0
LINE
  5
07bbaf86
330
1F
  8
Layer
100
AcDbEntity
  6
Continuous
100
AcDbLine
 10
2.587996907899999
 20
1.1688049136333332
 30
0.0
 11
2.597817835416479
 21
1.1589839861168534
 31
0.0
  0
LINE
  5
922fbd7a
330
1F
  8
Layer
100
AcDbEntity
  6
Continuous
100
AcDbLine
 10
2.597817835416479
 20
1.1589839861168534
 30
0.0
 11
2.53531783541648
 21
1.0964839861168534
 31
0.0
  0
LINE
  5
e8d67cbd
330
1F
  8
Layer
100
AcDbEntity
  6
Continuous
100
AcDbLine
 10
2.53531783541648
 20
1.0964839861168534
 30
0.0
 11
2.51567598038352
 21
1.116125841149813
 31
0.0
  0
LINE
  5
c69d68b5
330
1F
  8
Layer
100
AcDbEntity
  6
Continuous
100
AcDbLine
 10
2.51567598038352
 20
1.116125841149813
 30
0.0
 11
2.578175980383519
 21
1.178625841149813
 31
0.0
  0
LINE
  5
d0eee875
330
1F
  8
Layer
100
AcDbEntity
  6
Continuous
100
AcDbLine
 10
2.578175980383519
 20
1.178625841149813
 30
0.0
 11
2.587996907899999
 21
1.1688049136333332
 31
0.0
  0
LINE
  5
25537d66
330
1F
  8
Layer
100
AcDbEntity
  6
Continuous
100
AcDbLine
 10
2.6763852554999996
 20
1.1688049136333332
 30
0.0
 11
2.6862061830164796
 21
1.1589839861168534
 31
0.0
  0
LINE
  5
c98491ef
330
1F
  8
Layer
100
AcDbEntity
  6
Continuous
100
AcDbLine
 10
2.6862061830164796
 20
1.1589839861168534
 30
0.0
 11
2.6237061830164796
 21
1.0964839861168534
 31
0.0
  0
LINE
  5
1fd3bac0
330
1F
  8
Layer
100
AcDbEntity
  6
Continuous
100
AcDbLine
 10
2.6237061830164796
 20
1.0964839861168534
 30
0.0
 11
2.6040643279835196
 21
1.116125841149813
 31
0.0
  0
LINE
  5
9a35cb2b
330
1F
  8
Layer
100
AcDbEntity
  6
Continuous
100
AcDbLine
 10
2.6040643279835196
 20
1.116125841149813
 30
0.0
 11
2.6665643279835196
 21
1.178625841149813
 31
0.0
  0
LINE
  5
04b342c4
330
1F
  8
Layer
100
AcDbEntity
  6
Continuous
100
AcDbLine
 10
2.6665643279835196
 20
1.178625841149813
 30
0.0
 11
2.6763852554999996
 21
1.1688049136333332
 31
0.0
  0
LINE
  5
b888d6e9
330
1F
  8
Layer
100
AcDbEntity
  6
Continuous
100
AcDbLine
 10
2.7647736032
 20
1.1688049136333332
 30
0.0
 11
2.77459453071648
 21
1.1589839861168534
 31
0.0
  0
LINE
  5
da36c06f
330
1F
  8
Layer
100
AcDbEntity
  6
Continuous
100
AcDbLine
 10
2.77459453071648
 20
1.1589839861168534
 30
0.0
 11
2.71209453071648
 21
1.0964839861168534
 31
0.0
  0
LINE
  5
7c5bf56b
330
1F
  8
Layer
100
AcDbEntity
  6
Continuous
100
AcDbLine
 10
2.71209453071648
 20
1.0964839861168534
 30
0.0
 11
2.69245267568352
 21
1.116125841149813
 31
0.0
  0
LINE
  5
c5480631
330
1F
  8
Layer
100
AcDbEntity
  6
Continuous
100
AcDbLine
 10
2.69245267568352
 20
1.116125841149813
 30
0.0
 11
2.75495267568352
 21
1.178625841149813
 31
0.0
  0
LINE
  5
f234a350
330
1F
  8
Layer
100
AcDbEntity
  6
Continuous
100
AcDbLine
 10
2.75495267568352
 20
1.178625841149813
 30
0.0
 11
2.7647736032
 21
1.1688049136333332
 31
0.0
  0
LINE
  5
49e65447
330
1F
  8
Layer
100
AcDbEntity
  6
Continuous
100
AcDbLine
 10
2.8531619507999997
 20
1.1688049136333332
 30
0.0
 11
2.8629828783164797
 21
1.1589839861168534
 31
0.0
  0
LINE
  5
5896e334
330
1F
  8
Layer
100
AcDbEntity
  6
Continuous
100
AcDbLine
 10
2.8629828783164797
 20
1.1589839861168534
 30
0.0
 11
2.8004828783164797
 21
1.0964839861168534
 31
0.0
  0
LINE
  5
7bc90b81
330
1F
  8
Layer
100
AcDbEntity
  6
Continuous
100
AcDbLine
 10
2.8004828783164797
 20
1.0964839861168534
 30
0.0
 11
2.7808410232835197
 21
1.116125841149813
 31
0.0
  0
LINE
  5
1881ee6b
330
1F
  8
Layer
100
AcDbEntity
  6
Continuous
100
AcDbLine
 10
2.7808410232835197
 20
1.116125841149813
 30
0.0
 11
2.8433410232835197
 21
1.178625841149813
 31
0.0
  0
LINE
  5
b3b7be9a
330
1F
  8
Layer
100
AcDbEntity
  6
Continuous
100
AcDbLine
 10
2.8433410232835197
 20
1.178625841149813
 30
0.0
 11
2.8531619507999997
 21
1.1688049136333332
 31
0.0
  0
LINE
  5
2731883b
330
1F
  8
Layer
100
AcDbEntity
  6
Continuous
100
AcDbLine
 10
2.9415502984999993
 20
1.1688049136333332
 30
0.0
 11
2.9513712260164793
 21
1.1589839861168534
 31
0.0
  0
LINE
  5
847fa5e1
330
1F
  8
Layer
100
AcDbEntity
  6
Continuous
100
AcDbLine
 10
2.9513712260164793
 20
1.1589839861168534
 30
0.0
 11
2.8888712260164793
 21
1.0964839861168534
 31
0.0
  0
LINE
  5
1ac893ba
330
1F
  8
Layer
100
AcDbEntity
  6
Continuous
100
AcDbLine
 10
2.8888712260164793
 20
1.0964839861168534
 30
0.0
 11
2.8692293709835193
 21
1.116125841149813
 31
0.0
  0
LINE
  5
c7e228e5
330
1F
  8
Layer
100
AcDbEntity
  6
Continuous
100
AcDbLine
 10
2.8692293709835193
 20
1.116125841149813
 30
0.0
 11
2.9317293709835193
 21
1.178625841149813
 31
0.0
  0
LINE
  5
d085d12c
330
1F
  8
Layer
100
AcDbEntity
  6
Continuous
100
AcDbLine
 10
2.9317293709835193
 20
1.178625841149813
 30
0.0
 11
2.9415502984999993
 21
1.1688049136333332
 31
0.0
  0
LINE
  5
28e6302c
330
1F
  8
Layer
100
AcDbEntity
  6
Continuous
100
AcDbLine
 10
3.0299386460999997
 20
1.1688049136333332
 30
0.0
 11
3.0397595736164797
 21
1.1589839861168534
 31
0.0
  0
LINE
  5
3a4b7462
330
1F
  8
Layer
100
AcDbEntity
  6
Continuous
100
AcDbLine
 10
3.0397595736164797
 20
1.1589839861168534
 30
0.0
 11
2.9772595736164797
 21
1.0964839861168534
 31
0.0
  0
LINE
  5
58e6b364
330
1F
  8
Layer
100
AcDbEntity
  6
Continuous
100
AcDbLine
 10
2.9772595736164797
 20
1.0964839861168534
 30
0.0
 11
2.9576177185835197
 21
1.116125841149813
 31
0.0
  0
LINE
  5
d6b19553
330
1F
  8
Layer
100
AcDbEntity
  6
Continuous
100
AcDbLine
 10
2.9576177185835197
 20
1.116125841149813
 30
0.0
 11
3.0201177185835197
 21
1.178625841149813
 31
0.0
  0
LINE
  5
f01476a0
330
1F
  8
Layer
100
AcDbEntity
  6
Continuous
100
AcDbLine
 10
3.0201177185835197
 20
1.178625841149813
 30
0.0
 11
3.0299386460999997
 21
1.1688049136333332
 31
0.0
  0
LINE
  5
339fd380
330
1F
  8
Layer
100
AcDbEntity
  6
Continuous
100
AcDbLine
 10
3.1183269937999993
 20
1.1688049136333332
 30
0.0
 11
3.1281479213164793
 21
1.1589839861168534
 31
0.0
  0
LINE
  5
985e483c
330
1F
  8
Layer
100
AcDbEntity
  6
Continuous
100
AcDbLine
 10
3.1281479213164793
 20
1.1589839861168534
 30
0.0
 11
3.0656479213164793
 21
1.0964839861168534
 31
0.0
  0
LINE
  5
04e3ca4b
330
1F
  8
Layer
100
AcDbEntity
  6
Continuous
100
AcDbLine
 10
3.0656479213164793
 20
1.0964839861168534
 30
0.0
 11
3.0460060662835193
 21
1.116125841149813
 31
0.0
  0
LINE
  5
1666dde8
330
1F
  8
Layer
100
AcDbEntity
  6
Continuous
100
AcDbLine
 10
3.0460060662835193
 20
1.116125841149813
 30
0.0
 11
3.1085060662835193
 21
1.178625841149813
 31
0.0
  0
LINE
  5
0fea01b8
330
1F
  8
Layer
100
AcDbEntity
  6
Continuous
100
AcDbLine
 10
3.1085060662835193
 20
1.178625841149813
 30
0.0
 11
3.1183269937999993
 21
1.1688049136333332
 31
0.0
  0
LINE
  5
28015689
330
1F
  8
Layer
100
AcDbEntity
  6
Continuous
100
AcDbLine
 10
3.2067153414
 20
1.1688049136333332
 30
0.0
 11
3.21653626891648
 21
1.1589839861168534
 31
0.0
  0
LINE
  5
2c52b45c
330
1F
  8
Layer
100
AcDbEntity
  6
Continuous
100
AcDbLine
 10
3.21653626891648
 20
1.1589839861168534
 30
0.0
 11
3.15403626891648
 21
1.0964839861168534
 31
0.0
  0
LINE
  5
666f87e7
330
1F
  8
Layer
100
AcDbEntity
  6
Continuous
100
AcDbLine
 10
3.15403626891648
 20
1.0964839861168534
 30
0.0
 11
3.13439441388352
 21
1.116125841149813
 31
0.0
  0
LINE
  5
0560c6f0
330
1F
  8
Layer
100
AcDbEntity
  6
Continuous
100
AcDbLine
 10
3.13439441388352
 20
1.116125841149813
 30
0.0
 11
3.19689441388352
 21
1.178625841149813
 31
0.0
  0
LINE
  5
278f93fd
330
1F
  8
Layer
100
AcDbEntity
  6
Continuous
100
AcDbLine
 10
3.19689441388352
 20
1.178625841149813
 30
0.0
 11
3.2067153414
 21
1.1688049136333332
 31
0.0
  0
LINE
  5
54c0266c
330
1F
  8
Layer
100
AcDbEntity
  6
Continuous
100
AcDbLine
 10
3.2951036890999994
 20
1.1688049136333332
 30
0.0
 11
3.3049246166164794
 21
1.1589839861168534
 31
0.0
  0
LINE
  5
f5d35deb
330
1F
  8
Layer
100
AcDbEntity
  6
Continuous
100
AcDbLine
 10
3.3049246166164794
 20
1.1589839861168534
 30
0.0
 11
3.2424246166164794
 21
1.0964839861168534
 31
0.0
  0
LINE
  5
5485da97
330
1F
  8
Layer
100
AcDbEntity
  6
Continuous
100
AcDbLine
 10
3.2424246166164794
 20
1.0964839861168534
 30
0.0
 11
3.2227827615835194
 21
1.116125841149813
 31
0.0
  0
LINE
  5
3e63a23c
330
1F
  8
Layer
100
AcDbEntity
  6
Continuous
100
AcDbLine
 10
3.2227827615835194
 20
1.116125841149813
 30
0.0
 11
3.2852827615835194
 21
1.178625841149813
 31
0.0
  0
LINE
  5
270d416c
330
1F
  8
Layer
100
AcDbEntity
  6
Continuous
100
AcDbLine
 10
3.2852827615835194
 20
1.178625841149813
 30
0.0
 11
3.2951036890999994
 21
1.1688049136333332
 31
0.0
  0
LINE
  5
dce03110
330
1F
  8
Layer
100
AcDbEntity
  6
Continuous
100
AcDbLine
 10
3.3834920367
 20
1.1688049136333332
 30
0.0
 11
3.39331296421648
 21
1.1589839861168534
 31
0.0
  0
LINE
  5
caf9278e
330
1F
  8
Layer
100
AcDbEntity
  6
Continuous
100
AcDbLine
 10
3.39331296421648
 20
1.1589839861168534
 30
0.0
 11
3.33081296421648
 21
1.0964839861168534
 31
0.0
  0
LINE
  5
b2f76cb6
330
1F
  8
Layer
100
AcDbEntity
  6
Continuous
100
AcDbLine
 10
3.33081296421648
 20
1.0964839861168534
 30
0.0
 11
3.31117110918352
 21
1.116125841149813
 31
0.0
  0
LINE
  5
204bfab1
330
1F
  8
Layer
100
AcDbEntity
  6
Continuous
100
AcDbLine
 10
3.31117110918352
 20
1.116125841149813
 30
0.0
 11
3.37367110918352
 21
1.178625841149813
 31
0.0
  0
LINE
  5
5bdd9c8d
330
1F
  8
Layer
100
AcDbEntity
  6
Continuous
100
AcDbLine
 10
3.37367110918352
 20
1.178625841149813
 30
0.0
 11
3.3834920367
 21
1.1688049136333332
 31
0.0
  0
LINE
  5
cdf5c728
330
1F
  8
Layer
100
AcDbEntity
  6
Continuous
100
AcDbLine
 10
3.4718803843999995
 20
1.1688049136333332
 30
0.0
 11
3.4817013119164795
 21
1.1589839861168534
 31
0.0
  0
LINE
  5
f6380b3b
330
1F
  8
Layer
100
AcDbEntity
  6
Continuous
100
AcDbLine
 10
3.4817013119164795
 20
1.1589839861168534
 30
0.0
 11
3.4192013119164795
 21
1.0964839861168534
 31
0.0
  0
LINE
  5
1fab2971
330
1F
  8
Layer
100
AcDbEntity
  6
Continuous
100
AcDbLine
 10
3.4192013119164795
 20
1.0964839861168534
 30
0.0
 11
3.3995594568835195
 21
1.116125841149813
 31
0.0
  0
LINE
  5
31a44510
330
1F
  8
Layer
100
AcDbEntity
  6
Continuous
100
AcDbLine
 10
3.3995594568835195
 20
1.116125841149813
 30
0.0
 11
3.4620594568835195
 21
1.178625841149813
 31
0.0
  0
LINE
  5
d9d713b4
330
1F
  8
Layer
100
AcDbEntity
  6
Continuous
100
AcDbLine
 10
3.4620594568835195
 20
1.178625841149813
 30
0.0
 11
3.4718803843999995
 21
1.1688049136333332
 31
0.0
  0
LINE
  5
a60699d7
330
1F
  8
Layer
100
AcDbEntity
  6
Continuous
100
AcDbLine
 10
3.560268731999999
 20
1.1688049136333332
 30
0.0
 11
3.570089659516479
 21
1.1589839861168534
 31
0.0
  0
LINE
  5
6ff671ef
330
1F
  8
Layer
100
AcDbEntity
  6
Continuous
100
AcDbLine
 10
3.570089659516479
 20
1.1589839861168534
 30
0.0
 11
3.50758965951648
 21
1.0964839861168534
 31
0.0
  0
LINE
  5
ddca22b1
330
1F
  8
Layer
100
AcDbEntity
  6
Continuous
100
AcDbLine
 10
3.50758965951648
 20
1.0964839861168534
 30
0.0
 11
3.48794780448352
 21
1.116125841149813
 31
0.0
  0
LINE
  5
21dba602
330
1F
  8
Layer
100
AcDbEntity
  6
Continuous
100
AcDbLine
 10
3.48794780448352
 20
1.116125841149813
 30
0.0
 11
3.550447804483519
 21
1.178625841149813
 31
0.0
  0
LINE
  5
9e0a20a2
330
1F
  8
Layer
100
AcDbEntity
  6
Continuous
100
AcDbLine
 10
3.550447804483519
 20
1.178625841149813
 30
0.0
 11
3.560268731999999
 21
1.1688049136333332
 31
0.0
  0
LINE
  5
8cde8c31
330
1F
  8
Layer
100
AcDbEntity
  6
Continuous
100
AcDbLine
 10
3.6486570796999995
 20
1.1688049136333332
 30
0.0
 11
3.6584780072164795
 21
1.1589839861168534
 31
0.0
  0
LINE
  5
52b44238
330
1F
  8
Layer
100
AcDbEntity
  6
Continuous
100
AcDbLine
 10
3.6584780072164795
 20
1.1589839861168534
 30
0.0
 11
3.5959780072164795
 21
1.0964839861168534
 31
0.0
  0
LINE
  5
015a4844
330
1F
  8
Layer
100
AcDbEntity
  6
Continuous
100
AcDbLine
 10
3.5959780072164795
 20
1.0964839861168534
 30
0.0
 11
3.5763361521835195
 21
1.116125841149813
 31
0.0
  0
LINE
  5
d7daae1a
330
1F
  8
Layer
100
AcDbEntity
  6
Continuous
100
AcDbLine
 10
3.5763361521835195
 20
1.116125841149813
 30
0.0
 11
3.6388361521835195
 21
1.178625841149813
 31
0.0
  0
LINE
  5
1248509c
330
1F
  8
Layer
100
AcDbEntity
  6
Continuous
100
AcDbLine
 10
3.6388361521835195
 20
1.178625841149813
 30
0.0
 11
3.6486570796999995
 21
1.1688049136333332
 31
0.0
  0
LINE
  5
6ec990f2
330
1F
  8
Layer
100
AcDbEntity
  6
Continuous
100
AcDbLine
 10
3.7370454273
 20
1.1688049136333332
 30
0.0
 11
3.74686635481648
 21
1.1589839861168534
 31
0.0
  0
LINE
  5
79395d28
330
1F
  8
Layer
100
AcDbEntity
  6
Continuous
100
AcDbLine
 10
3.74686635481648
 20
1.1589839861168534
 30
0.0
 11
3.68436635481648
 21
1.0964839861168534
 31
0.0
  0
LINE
  5
b2479e3d
330
1F
  8
Layer
100
AcDbEntity
  6
Continuous
100
AcDbLine
 10
3.68436635481648
 20
1.0964839861168534
 30
0.0
 11
3.66472449978352
 21
1.116125841149813
 31
0.0
  0
LINE
  5
5b13ff50
330
1F
  8
Layer
100
AcDbEntity
  6
Continuous
100
AcDbLine
 10
3.66472449978352
 20
1.116125841149813
 30
0.0
 11
3.72722449978352
 21
1.178625841149813
 31
0.0
  0
LINE
  5
79b5ca12
330
1F
  8
Layer
100
AcDbEntity
  6
Continuous
100
AcDbLine
 10
3.72722449978352
 20
1.178625841149813
 30
0.0
 11
3.7370454273
 21
1.1688049136333332
 31
0.0
  0
LINE
  5
ff709930
330
1F
  8
Layer
100
AcDbEntity
  6
Continuous
100
AcDbLine
 10
3.8254337749999987
 20
1.1688049136333332
 30
0.0
 11
3.8352547025164787
 21
1.1589839861168534
 31
0.0
  0
LINE
  5
4c0b7211
330
1F
  8
Layer
100
AcDbEntity
  6
Continuous
100
AcDbLine
 10
3.8352547025164787
 20
1.1589839861168534
 30
0.0
 11
3.7727547025164787
 21
1.0964839861168534
 31
0.0
  0
LINE
  5
53b221e5
330
1F
  8
Layer
100
AcDbEntity
  6
Continuous
100
AcDbLine
 10
3.7727547025164787
 20
1.0964839861168534
 30
0.0
 11
3.7531128474835187
 21
1.116125841149813
 31
0.0
  0
LINE
  5
493a6658
330
1F
  8
Layer
100
AcDbEntity
  6
Continuous
100
AcDbLine
 10
3.7531128474835187
 20
1.116125841149813
 30
0.0
 11
3.8156128474835187
 21
1.178625841149813
 31
0.0
  0
LINE
  5
2cb963f6
330
1F
  8
Layer
100
AcDbEntity
  6
Continuous
100
AcDbLine
 10
3.8156128474835187
 20
1.178625841149813
 30
0.0
 11
3.8254337749999987
 21
1.1688049136333332
 31
0.0
  0
LINE
  5
bc8d4c44
330
1F
  8
Layer
100
AcDbEntity
  6
Continuous
100
AcDbLine
 10
3.913822122599999
 20
1.1688049136333332
 30
0.0
 11
3.923643050116479
 21
1.1589839861168534
 31
0.0
  0
LINE
  5
06534d45
330
1F
  8
Layer
100
AcDbEntity
  6
Continuous
100
AcDbLine
 10
3.923643050116479
 20
1.1589839861168534
 30
0.0
 11
3.861143050116479
 21
1.0964839861168534
 31
0.0
  0
LINE
  5
26fc79e7
330
1F
  8
Layer
100
AcDbEntity
  6
Continuous
100
AcDbLine
 10
3.861143050116479
 20
1.0964839861168534
 30
0.0
 11
3.841501195083519
 21
1.116125841149813
 31
0.0
  0
LINE
  5
973c7289
330
1F
  8
Layer
100
AcDbEntity
  6
Continuous
100
AcDbLine
 10
3.841501195083519
 20
1.116125841149813
 30
0.0
 11
3.904001195083519
 21
1.178625841149813
 31
0.0
  0
LINE
  5
5ad7d54c
330
1F
  8
Layer
100
AcDbEntity
  6
Continuous
100
AcDbLine
 10
3.904001195083519
 20
1.178625841149813
 30
0.0
 11
3.913822122599999
 21
1.1688049136333332
 31
0.0
  0
LINE
  5
bd6b6d8b
330
1F
  8
Layer
100
AcDbEntity
  6
Continuous
100
AcDbLine
 10
4.0022104703
 20
1.1688049136333332
 30
0.0
 11
4.01203139781648
 21
1.1589839861168534
 31
0.0
  0
LINE
  5
a46fdc79
330
1F
  8
Layer
100
AcDbEntity
  6
Continuous
100
AcDbLine
 10
4.01203139781648
 20
1.1589839861168534
 30
0.0
 11
3.9495313978164797
 21
1.0964839861168534
 31
0.0
  0
LINE
  5
92f93b56
330
1F
  8
Layer
100
AcDbEntity
  6
Continuous
100
AcDbLine
 10
3.9495313978164797
 20
1.0964839861168534
 30
0.0
 11
3.9298895427835197
 21
1.116125841149813
 31
0.0
  0
LINE
  5
13c78967
330
1F
  8
Layer
100
AcDbEntity
  6
Continuous
100
AcDbLine
 10
3.9298895427835197
 20
1.116125841149813
 30
0.0
 11
3.9923895427835197
 21
1.178625841149813
 31
0.0
  0
LINE
  5
180de10d
330
1F
  8
Layer
100
AcDbEntity
  6
Continuous
100
AcDbLine
 10
3.9923895427835197
 20
1.178625841149813
 30
0.0
 11
4.0022104703
 21
1.1688049136333332
 31
0.0
  0
LINE
  5
ee0e8f75
330
1F
  8
Layer
100
AcDbEntity
  6
Continuous
100
AcDbLine
 10
4.0905988179
 20
1.1688049136333332
 30
0.0
 11
4.10041974541648
 21
1.1589839861168534
 31
0.0
  0
LINE
  5
bea3c7e2
330
1F
  8
Layer
100
AcDbEntity
  6
Continuous
100
AcDbLine
 10
4.10041974541648
 20
1.1589839861168534
 30
0.0
 11
4.03791974541648
 21
1.0964839861168534
 31
0.0
  0
LINE
  5
c6f1fd55
330
1F
  8
Layer
100
AcDbEntity
  6
Continuous
100
AcDbLine
 10
4.03791974541648
 20
1.0964839861168534
 30
0.0
 11
4.01827789038352
 21
1.116125841149813
 31
0.0
  0
LINE
  5
a1262287
330
1F
  8
Layer
100
AcDbEntity
  6
Continuous
100
AcDbLine
 10
4.01827789038352
 20
1.116125841149813
 30
0.0
 11
4.08077789038352
 21
1.178625841149813
 31
0.0
  0
LINE
  5
11e340df
330
1F
  8
Layer
100
AcDbEntity
  6
Continuous
100
AcDbLine
 10
4.08077789038352
 20
1.178625841149813
 30
0.0
 11
4.0905988179
 21
1.1688049136333332
 31
0.0
  0
LINE
  5
582aa07c
330
1F
  8
Layer
100
AcDbEntity
  6
Continuous
100
AcDbLine
 10
4.178987165499999
 20
1.1688049136333332
 30
0.0
 11
4.188808093016479
 21
1.1589839861168534
 31
0.0
  0
LINE
  5
eceec78e
330
1F
  8
Layer
100
AcDbEntity
  6
Continuous
100
AcDbLine
 10
4.188808093016479
 20
1.1589839861168534
 30
0.0
 11
4.126308093016479
 21
1.0964839861168534
 31
0.0
  0
LINE
  5
b515ccc0
330
1F
  8
Layer
100
AcDbEntity
  6
Continuous
100
AcDbLine
 10
4.126308093016479
 20
1.0964839861168534
 30
0.0
 11
4.106666237983519
 21
1.116125841149813
 31
0.0
  0
LINE
  5
0614c5b0
330
1F
  8
Layer
100
AcDbEntity
  6
Continuous
100
AcDbLine
 10
4.106666237983519
 20
1.116125841149813
 30
0.0
 11
4.169166237983519
 21
1.178625841149813
 31
0.0
  0
LINE
  5
722cd434
330
1F
  8
Layer
100
AcDbEntity
  6
Continuous
100
AcDbLine
 10
4.169166237983519
 20
1.178625841149813
 30
0.0
 11
4.178987165499999
 21
1.1688049136333332
 31
0.0
  0
LINE
  5
3b84efff
330
1F
  8
Layer
100
AcDbEntity
  6
Continuous
100
AcDbLine
 10
4.267375513199999
 20
1.1688049136333332
 30
0.0
 11
4.277196440716479
 21
1.1589839861168534
 31
0.0
  0
LINE
  5
6b2ebbeb
330
1F
  8
Layer
100
AcDbEntity
  6
Continuous
100
AcDbLine
 10
4.277196440716479
 20
1.1589839861168534
 30
0.0
 11
4.214696440716479
 21
1.0964839861168534
 31
0.0
  0
LINE
  5
d2aff7a6
330
1F
  8
Layer
100
AcDbEntity
  6
Continuous
100
AcDbLine
 10
4.214696440716479
 20
1.0964839861168534
 30
0.0
 11
4.195054585683519
 21
1.116125841149813
 31
0.0
  0
LINE
  5
015b3837
330
1F
  8
Layer
100
AcDbEntity
  6
Continuous
100
AcDbLine
 10
4.195054585683519
 20
1.116125841149813
 30
0.0
 11
4.257554585683519
 21
1.178625841149813
 31
0.0
  0
LINE
  5
eab4a123
330
1F
  8
Layer
100
AcDbEntity
  6
Continuous
100
AcDbLine
 10
4.257554585683519
 20
1.178625841149813
 30
0.0
 11
4.267375513199999
 21
1.1688049136333332
 31
0.0
  0
LINE
  5
4f874089
330
1F
  8
Layer
100
AcDbEntity
  6
Continuous
100
AcDbLine
 10
4.3557638608
 20
1.1688049136333332
 30
0.0
 11
4.36558478831648
 21
1.1589839861168534
 31
0.0
  0
LINE
  5
99320b53
330
1F
  8
Layer
100
AcDbEntity
  6
Continuous
100
AcDbLine
 10
4.36558478831648
 20
1.1589839861168534
 30
0.0
 11
4.30308478831648
 21
1.0964839861168534
 31
0.0
  0
LINE
  5
37e24107
330
1F
  8
Layer
100
AcDbEntity
  6
Continuous
100
AcDbLine
 10
4.30308478831648
 20
1.0964839861168534
 30
0.0
 11
4.28344293328352
 21
1.116125841149813
 31
0.0
  0
LINE
  5
8c68e6b3
330
1F
  8
Layer
100
AcDbEntity
  6
Continuous
100
AcDbLine
 10
4.28344293328352
 20
1.116125841149813
 30
0.0
 11
4.34594293328352
 21
1.178625841149813
 31
0.0
  0
LINE
  5
8089a586
330
1F
  8
Layer
100
AcDbEntity
  6
Continuous
100
AcDbLine
 10
4.34594293328352
 20
1.178625841149813
 30
0.0
 11
4.3557638608
 21
1.1688049136333332
 31
0.0
  0
LINE
  5
04627758
330
1F
  8
Layer
100
AcDbEntity
  6
Continuous
100
AcDbLine
 10
4.4441522085
 20
1.1688049136333332
 30
0.0
 11
4.45397313601648
 21
1.1589839861168534
 31
0.0
  0
LINE
  5
9dd5afeb
330
1F
  8
Layer
100
AcDbEntity
  6
Continuous
100
AcDbLine
 10
4.45397313601648
 20
1.1589839861168534
 30
0.0
 11
4.39147313601648
 21
1.0964839861168534
 31
0.0
  0
LINE
  5
aa4d5477
330
1F
  8
Layer
100
AcDbEntity
  6
Continuous
100
AcDbLine
 10
4.39147313601648
 20
1.0964839861168534
 30
0.0
 11
4.37183128098352
 21
1.116125841149813
 31
0.0
  0
LINE
  5
a7697e1d
330
1F
  8
Layer
100
AcDbEntity
  6
Continuous
100
AcDbLine
 10
4.37183128098352
 20
1.116125841149813
 30
0.0
 11
4.43433128098352
 21
1.178625841149813
 31
0.0
  0
LINE
  5
db6a858a
330
1F
  8
Layer
100
AcDbEntity
  6
Continuous
100
AcDbLine
 10
4.43433128098352
 20
1.178625841149813
 30
0.0
 11
4.4441522085
 21
1.1688049136333332
 31
0.0
  0
LINE
  5
9320ae12
330
1F
  8
Layer
100
AcDbEntity
  6
Continuous
100
AcDbLine
 10
4.532540556100001
 20
1.1688049136333332
 30
0.0
 11
4.542361483616481
 21
1.1589839861168534
 31
0.0
  0
LINE
  5
cd8043c8
330
1F
  8
Layer
100
AcDbEntity
  6
Continuous
100
AcDbLine
 10
4.542361483616481
 20
1.1589839861168534
 30
0.0
 11
4.479861483616481
 21
1.0964839861168534
 31
0.0
  0
LINE
  5
51c74bea
330
1F
  8
Layer
100
AcDbEntity
  6
Continuous
100
AcDbLine
 10
4.479861483616481
 20
1.0964839861168534
 30
0.0
 11
4.460219628583521
 21
1.116125841149813
 31
0.0
  0
LINE
  5
5ac37a03
330
1F
  8
Layer
100
AcDbEntity
  6
Continuous
100
AcDbLine
 10
4.460219628583521
 20
1.116125841149813
 30
0.0
 11
4.522719628583521
 21
1.178625841149813
 31
0.0
  0
LINE
  5
4ce2817e
330
1F
  8
Layer
100
AcDbEntity
  6
Continuous
100
AcDbLine
 10
4.522719628583521
 20
1.178625841149813
 30
0.0
 11
4.532540556100001
 21
1.1688049136333332
 31
0.0
  0
LINE
  5
622743fc
330
1F
  8
Layer
100
AcDbEntity
  6
Continuous
100
AcDbLine
 10
4.620928903799999
 20
1.1688049136333332
 30
0.0
 11
4.630749831316479
 21
1.1589839861168534
 31
0.0
  0
LINE
  5
38e48203
330
1F
  8
Layer
100
AcDbEntity
  6
Continuous
100
AcDbLine
 10
4.630749831316479
 20
1.1589839861168534
 30
0.0
 11
4.568249831316479
 21
1.0964839861168534
 31
0.0
  0
LINE
  5
c33baaa9
330
1F
  8
Layer
100
AcDbEntity
  6
Continuous
100
AcDbLine
 10
4.568249831316479
 20
1.0964839861168534
 30
0.0
 11
4.548607976283519
 21
1.116125841149813
 31
0.0
  0
LINE
  5
3c3d7bac
330
1F
  8
Layer
100
AcDbEntity
  6
Continuous
100
AcDbLine
 10
4.548607976283519
 20
1.116125841149813
 30
0.0
 11
4.611107976283519
 21
1.178625841149813
 31
0.0
  0
LINE
  5
8c8c46d0
330
1F
  8
Layer
100
AcDbEntity
  6
Continuous
100
AcDbLine
 10
4.611107976283519
 20
1.178625841149813
 30
0.0
 11
4.620928903799999
 21
1.1688049136333332
 31
0.0
  0
LINE
  5
e0265393
330
1F
  8
Layer
100
AcDbEntity
  6
Continuous
100
AcDbLine
 10
4.7093172514
 20
1.1688049136333332
 30
0.0
 11
4.71913817891648
 21
1.1589839861168534
 31
0.0
  0
LINE
  5
64aabe85
330
1F
  8
Layer
100
AcDbEntity
  6
Continuous
100
AcDbLine
 10
4.71913817891648
 20
1.1589839861168534
 30
0.0
 11
4.65663817891648
 21
1.0964839861168534
 31
0.0
  0
LINE
  5
1dfec3df
330
1F
  8
Layer
100
AcDbEntity
  6
Continuous
100
AcDbLine
 10
4.65663817891648
 20
1.0964839861168534
 30
0.0
 11
4.63699632388352
 21
1.116125841149813
 31
0.0
  0
LINE
  5
3805ba74
330
1F
  8
Layer
100
AcDbEntity
  6
Continuous
100
AcDbLine
 10
4.63699632388352
 20
1.116125841149813
 30
0.0
 11
4.69949632388352
 21
1.178625841149813
 31
0.0
  0
LINE
  5
441387a8
330
1F
  8
Layer
100
AcDbEntity
  6
Continuous
100
AcDbLine
 10
4.69949632388352
 20
1.178625841149813
 30
0.0
 11
4.7093172514
 21
1.1688049136333332
 31
0.0
  0
LINE
  5
3342549f
330
1F
  8
Layer
100
AcDbEntity
  6
Continuous
100
AcDbLine
 10
4.7977055991
 20
1.1688049136333332
 30
0.0
 11
4.80752652661648
 21
1.1589839861168534
 31
0.0
  0
LINE
  5
c319ee6d
330
1F
  8
Layer
100
AcDbEntity
  6
Continuous
100
AcDbLine
 10
4.80752652661648
 20
1.1589839861168534
 30
0.0
 11
4.74502652661648
 21
1.0964839861168534
 31
0.0
  0
LINE
  5
e81b6e1f
330
1F
  8
Layer
100
AcDbEntity
  6
Continuous
100
AcDbLine
 10
4.74502652661648
 20
1.0964839861168534
 30
0.0
 11
4.72538467158352
 21
1.116125841149813
 31
0.0
  0
LINE
  5
47a00c7f
330
1F
  8
Layer
100
AcDbEntity
  6
Continuous
100
AcDbLine
 10
4.72538467158352
 20
1.116125841149813
 30
0.0
 11
4.78788467158352
 21
1.178625841149813
 31
0.0
  0
LINE
  5
ab0e575a
330
1F
  8
Layer
100
AcDbEntity
  6
Continuous
100
AcDbLine
 10
4.78788467158352
 20
1.178625841149813
 30
0.0
 11
4.7977055991
 21
1.1688049136333332
 31
0.0
  0
LINE
  5
a4ea297b
330
1F
  8
Layer
100
AcDbEntity
  6
Continuous
100
AcDbLine
 10
4.886093946699999
 20
1.1688049136333332
 30
0.0
 11
4.895914874216479
 21
1.1589839861168534
 31
0.0
  0
LINE
  5
2e135b11
330
1F
  8
Layer
100
AcDbEntity
  6
Continuous
100
AcDbLine
 10
4.895914874216479
 20
1.1589839861168534
 30
0.0
 11
4.833414874216479
 21
1.0964839861168534
 31
0.0
  0
LINE
  5
ed87ee63
330
1F
  8
Layer
100
AcDbEntity
  6
Continuous
100
AcDbLine
 10
4.833414874216479
 20
1.0964839861168534
 30
0.0
 11
4.813773019183519
 21
1.116125841149813
 31
0.0
  0
LINE
  5
f92ce046
330
1F
  8
Layer
100
AcDbEntity
  6
Continuous
100
AcDbLine
 10
4.813773019183519
 20
1.116125841149813
 30
0.0
 11
4.876273019183519
 21
1.178625841149813
 31
0.0
  0
LINE
  5
5e3b6713
330
1F
  8
Layer
100
AcDbEntity
  6
Continuous
100
AcDbLine
 10
4.876273019183519
 20
1.178625841149813
 30
0.0
 11
4.886093946699999
 21
1.1688049136333332
 31
0.0
  0
LINE
  5
a1c1fa4d
330
1F
  8
Layer
100
AcDbEntity
  6
Continuous
100
AcDbLine
 10
4.9744822944
 20
1.1688049136333332
 30
0.0
 11
4.98430322191648
 21
1.1589839861168534
 31
0.0
  0
LINE
  5
0afe10da
330
1F
  8
Layer
100
AcDbEntity
  6
Continuous
100
AcDbLine
 10
4.98430322191648
 20
1.1589839861168534
 30
0.0
 11
4.92180322191648
 21
1.0964839861168534
 31
0.0
  0
LINE
  5
38bf5bf3
330
1F
  8
Layer
100
AcDbEntity
  6
Continuous
100
AcDbLine
 10
4.92180322191648
 20
1.0964839861168534
 30
0.0
 11
4.9021613668835196
 21
1.116125841149813
 31
0.0
  0
LINE
  5
c80d3a86
330
1F
  8
Layer
100
AcDbEntity
  6
Continuous
100
AcDbLine
 10
4.9021613668835196
 20
1.116125841149813
 30
0.0
 11
4.9646613668835196
 21
1.178625841149813
 31
0.0
  0
LINE
  5
ba75d798
330
1F
  8
Layer
100
AcDbEntity
  6
Continuous
100
AcDbLine
 10
4.9646613668835196
 20
1.178625841149813
 30
0.0
 11
4.9744822944
 21
1.1688049136333332
 31
0.0
  0
LINE
  5
b9244838
330
1F
  8
Layer
100
AcDbEntity
  6
Continuous
100
AcDbLine
 10
5.062870642
 20
1.1688049136333332
 30
0.0
 11
5.07269156951648
 21
1.1589839861168534
 31
0.0
  0
LINE
  5
5282e689
330
1F
  8
Layer
100
AcDbEntity
  6
Continuous
100
AcDbLine
 10
5.07269156951648
 20
1.1589839861168534
 30
0.0
 11
5.01019156951648
 21
1.0964839861168534
 31
0.0
  0
LINE
  5
7f5f60f7
330
1F
  8
Layer
100
AcDbEntity
  6
Continuous
100
AcDbLine
 10
5.01019156951648
 20
1.0964839861168534
 30
0.0
 11
4.99054971448352
 21
1.116125841149813
 31
0.0
  0
LINE
  5
8ec79bad
330
1F
  8
Layer
100
AcDbEntity
  6
Continuous
100
AcDbLine
 10
4.99054971448352
 20
1.116125841149813
 30
0.0
 11
5.05304971448352
 21
1.178625841149813
 31
0.0
  0
LINE
  5
b253ff49
330
1F
  8
Layer
100
AcDbEntity
  6
Continuous
100
AcDbLine
 10
5.05304971448352
 20
1.178625841149813
 30
0.0
 11
5.062870642
 21
1.1688049136333332
 31
0.0
  0
LINE
  5
e802354d
330
1F
  8
Layer
100
AcDbEntity
  6
Continuous
100
AcDbLine
 10
5.151258989699999
 20
1.1688049136333332
 30
0.0
 11
5.161079917216479
 21
1.1589839861168534
 31
0.0
  0
LINE
  5
41b5e918
330
1F
  8
Layer
100
AcDbEntity
  6
Continuous
100
AcDbLine
 10
5.161079917216479
 20
1.1589839861168534
 30
0.0
 11
5.098579917216479
 21
1.0964839861168534
 31
0.0
  0
LINE
  5
002d992f
330
1F
  8
Layer
100
AcDbEntity
  6
Continuous
100
AcDbLine
 10
5.098579917216479
 20
1.0964839861168534
 30
0.0
 11
5.078938062183519
 21
1.116125841149813
 31
0.0
  0
LINE
  5
52ce2dfb
330
1F
  8
Layer
100
AcDbEntity
  6
Continuous
100
AcDbLine
 10
5.078938062183519
 20
1.116125841149813
 30
0.0
 11
5.141438062183519
 21
1.178625841149813
 31
0.0
  0
LINE
  5
bf86b432
330
1F
  8
Layer
100
AcDbEntity
  6
Continuous
100
AcDbLine
 10
5.141438062183519
 20
1.178625841149813
 30
0.0
 11
5.151258989699999
 21
1.1688049136333332
 31
0.0
  0
LINE
  5
96b6ebec
330
1F
  8
Layer
100
AcDbEntity
  6
Continuous
100
AcDbLine
 10
5.239647337299999
 20
1.1688049136333332
 30
0.0
 11
5.249468264816479
 21
1.1589839861168534
 31
0.0
  0
LINE
  5
de5091e2
330
1F
  8
Layer
100
AcDbEntity
  6
Continuous
100
AcDbLine
 10
5.249468264816479
 20
1.1589839861168534
 30
0.0
 11
5.186968264816479
 21
1.0964839861168534
 31
0.0
  0
LINE
  5
ca3b0f83
330
1F
  8
Layer
100
AcDbEntity
  6
Continuous
100
AcDbLine
 10
5.186968264816479
 20
1.0964839861168534
 30
0.0
 11
5.167326409783519
 21
1.116125841149813
 31
0.0
  0
LINE
  5
7cb0b728
330
1F
  8
Layer
100
AcDbEntity
  6
Continuous
100
AcDbLine
 10
5.167326409783519
 20
1.116125841149813
 30
0.0
 11
5.229826409783519
 21
1.178625841149813
 31
0.0
  0
LINE
  5
b488b63e
330
1F
  8
Layer
100
AcDbEntity
  6
Continuous
100
AcDbLine
 10
5.229826409783519
 20
1.178625841149813
 30
0.0
 11
5.239647337299999
 21
1.1688049136333332
 31
0.0
  0
LINE
  5
c2954659
330
1F
  8
Layer
100
AcDbEntity
  6
Continuous
100
AcDbLine
 10
5.328035685
 20
1.1688049136333332
 30
0.0
 11
5.33785661251648
 21
1.1589839861168534
 31
0.0
  0
LINE
  5
6d2d2bb5
330
1F
  8
Layer
100
AcDbEntity
  6
Continuous
100
AcDbLine
 10
5.33785661251648
 20
1.1589839861168534
 30
0.0
 11
5.27535661251648
 21
1.0964839861168534
 31
0.0
  0
LINE
  5
0446197a
330
1F
  8
Layer
100
AcDbEntity
  6
Continuous
100
AcDbLine
 10
5.27535661251648
 20
1.0964839861168534
 30
0.0
 11
5.25571475748352
 21
1.116125841149813
 31
0.0
  0
LINE
  5
f073d98f
330
1F
  8
Layer
100
AcDbEntity
  6
Continuous
100
AcDbLine
 10
5.25571475748352
 20
1.116125841149813
 30
0.0
 11
5.31821475748352
 21
1.178625841149813
 31
0.0
  0
LINE
  5
8a8b8332
330
1F
  8
Layer
100
AcDbEntity
  6
Continuous
100
AcDbLine
 10
5.31821475748352
 20
1.178625841149813
 30
0.0
 11
5.328035685
 21
1.1688049136333332
 31
0.0
  0
LINE
  5
d2b7124e
330
1F
  8
Layer
100
AcDbEntity
  6
Continuous
100
AcDbLine
 10
5.4164240326
 20
1.1688049136333332
 30
0.0
 11
5.42624496011648
 21
1.1589839861168534
 31
0.0
  0
LINE
  5
33f100b9
330
1F
  8
Layer
100
AcDbEntity
  6
Continuous
100
AcDbLine
 10
5.42624496011648
 20
1.1589839861168534
 30
0.0
 11
5.36374496011648
 21
1.0964839861168534
 31
0.0
  0
LINE
  5
bb51892e
330
1F
  8
Layer
100
AcDbEntity
  6
Continuous
100
AcDbLine
 10
5.36374496011648
 20
1.0964839861168534
 30
0.0
 11
5.34410310508352
 21
1.116125841149813
 31
0.0
  0
LINE
  5
4bc5bf83
330
1F
  8
Layer
100
AcDbEntity
  6
Continuous
100
AcDbLine
 10
5.34410310508352
 20
1.116125841149813
 30
0.0
 11
5.40660310508352
 21
1.178625841149813
 31
0.0
  0
LINE
  5
36615ad6
330
1F
  8
Layer
100
AcDbEntity
  6
Continuous
100
AcDbLine
 10
5.40660310508352
 20
1.178625841149813
 30
0.0
 11
5.4164240326
 21
1.1688049136333332
 31
0.0
  0
LINE
  5
77719cf8
330
1F
  8
Layer
100
AcDbEntity
  6
Continuous
100
AcDbLine
 10
5.504812380300001
 20
1.1688049136333332
 30
0.0
 11
5.514633307816481
 21
1.1589839861168534
 31
0.0
  0
LINE
  5
49d4cedb
330
1F
  8
Layer
100
AcDbEntity
  6
Continuous
100
AcDbLine
 10
5.514633307816481
 20
1.1589839861168534
 30
0.0
 11
5.452133307816481
 21
1.0964839861168534
 31
0.0
  0
LINE
  5
8bfc3eae
330
1F
  8
Layer
100
AcDbEntity
  6
Continuous
100
AcDbLine
 10
5.452133307816481
 20
1.0964839861168534
 30
0.0
 11
5.432491452783521
 21
1.116125841149813
 31
0.0
  0
LINE
  5
18eafd24
330
1F
  8
Layer
100
AcDbEntity
  6
Continuous
100
AcDbLine
 10
5.432491452783521
 20
1.116125841149813
 30
0.0
 11
5.494991452783521
 21
1.178625841149813
 31
0.0
  0
LINE
  5
d3eb800e
330
1F
  8
Layer
100
AcDbEntity
  6
Continuous
100
AcDbLine
 10
5.494991452783521
 20
1.178625841149813
 30
0.0
 11
5.504812380300001
 21
1.1688049136333332
 31
0.0
  0
LINE
  5
951bce0c
330
1F
  8
Layer
100
AcDbEntity
  6
Continuous
100
AcDbLine
 10
5.593200727899999
 20
1.1688049136333332
 30
0.0
 11
5.603021655416479
 21
1.1589839861168534
 31
0.0
  0
LINE
  5
09bc598d
330
1F
  8
Layer
100
AcDbEntity
  6
Continuous
100
AcDbLine
 10
5.603021655416479
 20
1.1589839861168534
 30
0.0
 11
5.540521655416479
 21
1.0964839861168534
 31
0.0
  0
LINE
  5
e6f247a4
330
1F
  8
Layer
100
AcDbEntity
  6
Continuous
100
AcDbLine
 10
5.540521655416479
 20
1.0964839861168534
 30
0.0
 11
5.520879800383519
 21
1.116125841149813
 31
0.0
  0
LINE
  5
2d4db219
330
1F
  8
Layer
100
AcDbEntity
  6
Continuous
100
AcDbLine
 10
5.520879800383519
 20
1.116125841149813
 30
0.0
 11
5.583379800383519
 21
1.178625841149813
 31
0.0
  0
LINE
  5
8e22bd29
330
1F
  8
Layer
100
AcDbEntity
  6
Continuous
100
AcDbLine
 10
5.583379800383519
 20
1.178625841149813
 30
0.0
 11
5.593200727899999
 21
1.1688049136333332
 31
0.0
  0
LINE
  5
9ac6517a
330
1F
  8
Layer
100
AcDbEntity
  6
Continuous
100
AcDbLine
 10
5.6815890756
 20
1.1688049136333332
 30
0.0
 11
5.69141000311648
 21
1.1589839861168534
 31
0.0
  0
LINE
  5
6554d408
330
1F
  8
Layer
100
AcDbEntity
  6
Continuous
100
AcDbLine
 10
5.69141000311648
 20
1.1589839861168534
 30
0.0
 11
5.62891000311648
 21
1.0964839861168534
 31
0.0
  0
LINE
  5
f6df6d95
330
1F
  8
Layer
100
AcDbEntity
  6
Continuous
100
AcDbLine
 10
5.62891000311648
 20
1.0964839861168534
 30
0.0
 11
5.60926814808352
 21
1.116125841149813
 31
0.0
  0
LINE
  5
fc083df6
330
1F
  8
Layer
100
AcDbEntity
  6
Continuous
100
AcDbLine
 10
5.60926814808352
 20
1.116125841149813
 30
0.0
 11
5.67176814808352
 21
1.178625841149813
 31
0.0
  0
LINE
  5
41bf6ad3
330
1F
  8
Layer
100
AcDbEntity
  6
Continuous
100
AcDbLine
 10
5.67176814808352
 20
1.178625841149813
 30
0.0
 11
5.6815890756
 21
1.1688049136333332
 31
0.0
  0
LINE
  5
3406fb09
330
1F
  8
Layer
100
AcDbEntity
  6
Continuous
100
AcDbLine
 10
5.7699774231999985
 20
1.1688049136333332
 30
0.0
 11
5.7797983507164785
 21
1.1589839861168534
 31
0.0
  0
LINE
  5
2ebc8a93
330
1F
  8
Layer
100
AcDbEntity
  6
Continuous
100
AcDbLine
 10
5.7797983507164785
 20
1.1589839861168534
 30
0.0
 11
5.7172983507164785
 21
1.0964839861168534
 31
0.0
  0
LINE
  5
de7d2f5d
330
1F
  8
Layer
100
AcDbEntity
  6
Continuous
100
AcDbLine
 10
5.7172983507164785
 20
1.0964839861168534
 30
0.0
 11
5.6976564956835185
 21
1.116125841149813
 31
0.0
  0
LINE
  5
3516a123
330
1F
  8
Layer
100
AcDbEntity
  6
Continuous
100
AcDbLine
 10
5.6976564956835185
 20
1.116125841149813
 30
0.0
 11
5.7601564956835185
 21
1.178625841149813
 31
0.0
  0
LINE
  5
a46e8771
330
1F
  8
Layer
100
AcDbEntity
  6
Continuous
100
AcDbLine
 10
5.7601564956835185
 20
1.178625841149813
 30
0.0
 11
5.7699774231999985
 21
1.1688049136333332
 31
0.0
  0
LINE
  5
be736fac
330
1F
  8
Layer
100
AcDbEntity
  6
Continuous
100
AcDbLine
 10
5.858365770899999
 20
1.1688049136333332
 30
0.0
 11
5.868186698416479
 21
1.1589839861168534
 31
0.0
  0
LINE
  5
a8e75c3e
330
1F
  8
Layer
100
AcDbEntity
  6
Continuous
100
AcDbLine
 10
5.868186698416479
 20
1.1589839861168534
 30
0.0
 11
5.805686698416479
 21
1.0964839861168534
 31
0.0
  0
LINE
  5
16d4ccb8
330
1F
  8
Layer
100
AcDbEntity
  6
Continuous
100
AcDbLine
 10
5.805686698416479
 20
1.0964839861168534
 30
0.0
 11
5.786044843383519
 21
1.116125841149813
 31
0.0
  0
LINE
  5
e5d7bb1b
330
1F
  8
Layer
100
AcDbEntity
  6
Continuous
100
AcDbLine
 10
5.786044843383519
 20
1.116125841149813
 30
0.0
 11
5.848544843383519
 21
1.178625841149813
 31
0.0
  0
LINE
  5
98479964
330
1F
  8
Layer
100
AcDbEntity
  6
Continuous
100
AcDbLine
 10
5.848544843383519
 20
1.178625841149813
 30
0.0
 11
5.858365770899999
 21
1.1688049136333332
 31
0.0
  0
LINE
  5
b0bf59f7
330
1F
  8
Layer
100
AcDbEntity
  6
Continuous
100
AcDbLine
 10
5.9467541184999995
 20
1.1688049136333332
 30
0.0
 11
5.9565750460164795
 21
1.1589839861168534
 31
0.0
  0
LINE
  5
1f992eb5
330
1F
  8
Layer
100
AcDbEntity
  6
Continuous
100
AcDbLine
 10
5.9565750460164795
 20
1.1589839861168534
 30
0.0
 11
5.8940750460164795
 21
1.0964839861168534
 31
0.0
  0
LINE
  5
7a0ca455
330
1F
  8
Layer
100
AcDbEntity
  6
Continuous
100
AcDbLine
 10
5.8940750460164795
 20
1.0964839861168534
 30
0.0
 11
5.8744331909835195
 21
1.116125841149813
 31
0.0
  0
LINE
  5
2c395dac
330
1F
  8
Layer
100
AcDbEntity
  6
Continuous
100
AcDbLine
 10
5.8744331909835195
 20
1.116125841149813
 30
0.0
 11
5.9369331909835195
 21
1.178625841149813
 31
0.0
  0
LINE
  5
e34f814d
330
1F
  8
Layer
100
AcDbEntity
  6
Continuous
100
AcDbLine
 10
5.9369331909835195
 20
1.178625841149813
 30
0.0
 11
5.9467541184999995
 21
1.1688049136333332
 31
0.0
  0
LINE
  5
42f0db3c
330
1F
  8
Layer
100
AcDbEntity
  6
Continuous
100
AcDbLine
 10
6.0351424662
 20
1.1688049136333332
 30
0.0
 11
6.04496339371648
 21
1.1589839861168534
 31
0.0
  0
LINE
  5
b14b4fff
330
1F
  8
Layer
100
AcDbEntity
  6
Continuous
100
AcDbLine
 10
6.04496339371648
 20
1.1589839861168534
 30
0.0
 11
5.98246339371648
 21
1.0964839861168534
 31
0.0
  0
LINE
  5
1ecf3c8c
330
1F
  8
Layer
100
AcDbEntity
  6
Continuous
100
AcDbLine
 10
5.98246339371648
 20
1.0964839861168534
 30
0.0
 11
5.96282153868352
 21
1.116125841149813
 31
0.0
  0
LINE
  5
2c5bf30f
330
1F
  8
Layer
100
AcDbEntity
  6
Continuous
100
AcDbLine
 10
5.96282153868352
 20
1.116125841149813
 30
0.0
 11
6.02532153868352
 21
1.178625841149813
 31
0.0
  0
LINE
  5
32071502
330
1F
  8
Layer
100
AcDbEntity
  6
Continuous
100
AcDbLine
 10
6.02532153868352
 20
1.178625841149813
 30
0.0
 11
6.0351424662
 21
1.1688049136333332
 31
0.0
  0
LINE
  5
3a199ef7
330
1F
  8
Layer
100
AcDbEntity
  6
Continuous
100
AcDbLine
 10
6.1235308138
 20
1.1688049136333332
 30
0.0
 11
6.13335174131648
 21
1.1589839861168534
 31
0.0
  0
LINE
  5
53112e85
330
1F
  8
Layer
100
AcDbEntity
  6
Continuous
100
AcDbLine
 10
6.13335174131648
 20
1.1589839861168534
 30
0.0
 11
6.07085174131648
 21
1.0964839861168534
 31
0.0
  0
LINE
  5
2d3ea8a3
330
1F
  8
Layer
100
AcDbEntity
  6
Continuous
100
AcDbLine
 10
6.07085174131648
 20
1.0964839861168534
 30
0.0
 11
6.05120988628352
 21
1.116125841149813
 31
0.0
  0
LINE
  5
6c469877
330
1F
  8
Layer
100
AcDbEntity
  6
Continuous
100
AcDbLine
 10
6.05120988628352
 20
1.116125841149813
 30
0.0
 11
6.11370988628352
 21
1.178625841149813
 31
0.0
  0
LINE
  5
612bd42a
330
1F
  8
Layer
100
AcDbEntity
  6
Continuous
100
AcDbLine
 10
6.11370988628352
 20
1.178625841149813
 30
0.0
 11
6.1235308138
 21
1.1688049136333332
 31
0.0
  0
LINE
  5
8e8c1984
330
1F
  8
Layer
100
AcDbEntity
  6
Continuous
100
AcDbLine
 10
6.211919161500001
 20
1.1688049136333332
 30
0.0
 11
6.221740089016481
 21
1.1589839861168534
 31
0.0
  0
LINE
  5
0b3acd61
330
1F
  8
Layer
100
AcDbEntity
  6
Continuous
100
AcDbLine
 10
6.221740089016481
 20
1.1589839861168534
 30
0.0
 11
6.159240089016481
 21
1.0964839861168534
 31
0.0
  0
LINE
  5
97a1267b
330
1F
  8
Layer
100
AcDbEntity
  6
Continuous
100
AcDbLine
 10
6.159240089016481
 20
1.0964839861168534
 30
0.0
 11
6.139598233983521
 21
1.116125841149813
 31
0.0
  0
LINE
  5
434d5c76
330
1F
  8
Layer
100
AcDbEntity
  6
Continuous
100
AcDbLine
 10
6.139598233983521
 20
1.116125841149813
 30
0.0
 11
6.202098233983521
 21
1.178625841149813
 31
0.0
  0
LINE
  5
3f694bb4
330
1F
  8
Layer
100
AcDbEntity
  6
Continuous
100
AcDbLine
 10
6.202098233983521
 20
1.178625841149813
 30
0.0
 11
6.211919161500001
 21
1.1688049136333332
 31
0.0
  0
LINE
  5
59d33d39
330
1F
  8
Layer
100
AcDbEntity
  6
Continuous
100
AcDbLine
 10
6.3003075091
 20
1.1688049136333332
 30
0.0
 11
6.31012843661648
 21
1.1589839861168534
 31
0.0
  0
LINE
  5
ffdf234d
330
1F
  8
Layer
100
AcDbEntity
  6
Continuous
100
AcDbLine
 10
6.31012843661648
 20
1.1589839861168534
 30
0.0
 11
6.24762843661648
 21
1.0964839861168534
 31
0.0
  0
LINE
  5
8fa7881c
330
1F
  8
Layer
100
AcDbEntity
  6
Continuous
100
AcDbLine
 10
6.24762843661648
 20
1.0964839861168534
 30
0.0
 11
6.22798658158352
 21
1.116125841149813
 31
0.0
  0
LINE
  5
e7d2cf59
330
1F
  8
Layer
100
AcDbEntity
  6
Continuous
100
AcDbLine
 10
6.22798658158352
 20
1.116125841149813
 30
0.0
 11
6.29048658158352
 21
1.178625841149813
 31
0.0
  0
LINE
  5
64b10d32
330
1F
  8
Layer
100
AcDbEntity
  6
Continuous
100
AcDbLine
 10
6.29048658158352
 20
1.178625841149813
 30
0.0
 11
6.3003075091
 21
1.1688049136333332
 31
0.0
  0
LINE
  5
b1a5f515
330
1F
  8
Layer
100
AcDbEntity
  6
Continuous
100
AcDbLine
 10
6.3886958568
 20
1.1688049136333332
 30
0.0
 11
6.39851678431648
 21
1.1589839861168534
 31
0.0
  0
LINE
  5
1a92a3f4
330
1F
  8
Layer
100
AcDbEntity
  6
Continuous
100
AcDbLine
 10
6.39851678431648
 20
1.1589839861168534
 30
0.0
 11
6.33601678431648
 21
1.0964839861168534
 31
0.0
  0
LINE
  5
395692d5
330
1F
  8
Layer
100
AcDbEntity
  6
Continuous
100
AcDbLine
 10
6.33601678431648
 20
1.0964839861168534
 30
0.0
 11
6.31637492928352
 21
1.116125841149813
 31
0.0
  0
LINE
  5
356c9f98
330
1F
  8
Layer
100
AcDbEntity
  6
Continuous
100
AcDbLine
 10
6.31637492928352
 20
1.116125841149813
 30
0.0
 11
6.37887492928352
 21
1.178625841149813
 31
0.0
  0
LINE
  5
0c0b15f7
330
1F
  8
Layer
100
AcDbEntity
  6
Continuous
100
AcDbLine
 10
6.37887492928352
 20
1.178625841149813
 30
0.0
 11
6.3886958568
 21
1.1688049136333332
 31
0.0
  0
LINE
  5
4b74166f
330
1F
  8
Layer
100
AcDbEntity
  6
Continuous
100
AcDbLine
 10
6.477084204399999
 20
1.1688049136333332
 30
0.0
 11
6.486905131916479
 21
1.1589839861168534
 31
0.0
  0
LINE
  5
dab05fe0
330
1F
  8
Layer
100
AcDbEntity
  6
Continuous
100
AcDbLine
 10
6.486905131916479
 20
1.1589839861168534
 30
0.0
 11
6.424405131916479
 21
1.0964839861168534
 31
0.0
  0
LINE
  5
77e77417
330
1F
  8
Layer
100
AcDbEntity
  6
Continuous
100
AcDbLine
 10
6.424405131916479
 20
1.0964839861168534
 30
0.0
 11
6.404763276883519
 21
1.116125841149813
 31
0.0
  0
LINE
  5
927a1087
330
1F
  8
Layer
100
AcDbEntity
  6
Continuous
100
AcDbLine
 10
6.404763276883519
 20
1.116125841149813
 30
0.0
 11
6.467263276883519
 21
1.178625841149813
 31
0.0
  0
LINE
  5
d50d34bc
330
1F
  8
Layer
100
AcDbEntity
  6
Continuous
100
AcDbLine
 10
6.467263276883519
 20
1.178625841149813
 30
0.0
 11
6.477084204399999
 21
1.1688049136333332
 31
0.0
  0
LINE
  5
af016366
330
1F
  8
Layer
100
AcDbEntity
  6
Continuous
100
AcDbLine
 10
6.565472552099999
 20
1.1688049136333332
 30
0.0
 11
6.575293479616479
 21
1.1589839861168534
 31
0.0
  0
LINE
  5
b91353d6
330
1F
  8
Layer
100
AcDbEntity
  6
Continuous
100
AcDbLine
 10
6.575293479616479
 20
1.1589839861168534
 30
0.0
 11
6.512793479616479
 21
1.0964839861168534
 31
0.0
  0
LINE
  5
0fa59695
330
1F
  8
Layer
100
AcDbEntity
  6
Continuous
100
AcDbLine
 10
6.512793479616479
 20
1.0964839861168534
 30
0.0
 11
6.493151624583519
 21
1.116125841149813
 31
0.0
  0
LINE
  5
618ba355
330
1F
  8
Layer
100
AcDbEntity
  6
Continuous
100
AcDbLine
 10
6.493151624583519
 20
1.116125841149813
 30
0.0
 11
6.555651624583519
 21
1.178625841149813
 31
0.0
  0
LINE
  5
8939c87c
330
1F
  8
Layer
100
AcDbEntity
  6
Continuous
100
AcDbLine
 10
6.555651624583519
 20
1.178625841149813
 30
0.0
 11
6.565472552099999
 21
1.1688049136333332
 31
0.0
  0
LINE
  5
f078a9a9
330
1F
  8
Layer
100
AcDbEntity
  6
Continuous
100
AcDbLine
 10
6.6538608997
 20
1.1688049136333332
 30
0.0
 11
6.66368182721648
 21
1.1589839861168534
 31
0.0
  0
LINE
  5
b4127d0f
330
1F
  8
Layer
100
AcDbEntity
  6
Continuous
100
AcDbLine
 10
6.66368182721648
 20
1.1589839861168534
 30
0.0
 11
6.60118182721648
 21
1.0964839861168534
 31
0.0
  0
LINE
  5
a7a2ec5f
330
1F
  8
Layer
100
AcDbEntity
  6
Continuous
100
AcDbLine
 10
6.60118182721648
 20
1.0964839861168534
 30
0.0
 11
6.58153997218352
 21
1.116125841149813
 31
0.0
  0
LINE
  5
6a334dee
330
1F
  8
Layer
100
AcDbEntity
  6
Continuous
100
AcDbLine
 10
6.58153997218352
 20
1.116125841149813
 30
0.0
 11
6.64403997218352
 21
1.178625841149813
 31
0.0
  0
LINE
  5
8064e54f
330
1F
  8
Layer
100
AcDbEntity
  6
Continuous
100
AcDbLine
 10
6.64403997218352
 20
1.178625841149813
 30
0.0
 11
6.6538608997
 21
1.1688049136333332
 31
0.0
  0
LINE
  5
b0dd5e05
330
1F
  8
Layer
100
AcDbEntity
  6
Continuous
100
AcDbLine
 10
6.742249247399998
 20
1.1688049136333332
 30
0.0
 11
6.752070174916478
 21
1.1589839861168534
 31
0.0
  0
LINE
  5
e737d46c
330
1F
  8
Layer
100
AcDbEntity
  6
Continuous
100
AcDbLine
 10
6.752070174916478
 20
1.1589839861168534
 30
0.0
 11
6.689570174916478
 21
1.0964839861168534
 31
0.0
  0
LINE
  5
3467251d
330
1F
  8
Layer
100
AcDbEntity
  6
Continuous
100
AcDbLine
 10
6.689570174916478
 20
1.0964839861168534
 30
0.0
 11
6.669928319883518
 21
1.116125841149813
 31
0.0
  0
LINE
  5
f0a94bdc
330
1F
  8
Layer
100
AcDbEntity
  6
Continuous
100
AcDbLine
 10
6.669928319883518
 20
1.116125841149813
 30
0.0
 11
6.732428319883518
 21
1.178625841149813
 31
0.0
  0
LINE
  5
5eb34242
330
1F
  8
Layer
100
AcDbEntity
  6
Continuous
100
AcDbLine
 10
6.732428319883518
 20
1.178625841149813
 30
0.0
 11
6.742249247399998
 21
1.1688049136333332
 31
0.0
  0
LINE
  5
62e9f41a
330
1F
  8
Layer
100
AcDbEntity
  6
Continuous
100
AcDbLine
 10
6.830637595000001
 20
1.1688049136333332
 30
0.0
 11
6.840458522516481
 21
1.1589839861168534
 31
0.0
  0
LINE
  5
8d1b72b7
330
1F
  8
Layer
100
AcDbEntity
  6
Continuous
100
AcDbLine
 10
6.840458522516481
 20
1.1589839861168534
 30
0.0
 11
6.777958522516481
 21
1.0964839861168534
 31
0.0
  0
LINE
  5
8718dc4f
330
1F
  8
Layer
100
AcDbEntity
  6
Continuous
100
AcDbLine
 10
6.777958522516481
 20
1.0964839861168534
 30
0.0
 11
6.758316667483521
 21
1.116125841149813
 31
0.0
  0
LINE
  5
ad63d1b3
330
1F
  8
Layer
100
AcDbEntity
  6
Continuous
100
AcDbLine
 10
6.758316667483521
 20
1.116125841149813
 30
0.0
 11
6.820816667483521
 21
1.178625841149813
 31
0.0
  0
LINE
  5
0974d28d
330
1F
  8
Layer
100
AcDbEntity
  6
Continuous
100
AcDbLine
 10
6.820816667483521
 20
1.178625841149813
 30
0.0
 11
6.830637595000001
 21
1.1688049136333332
 31
0.0
  0
LINE
  5
e48685da
330
1F
  8
Layer
100
AcDbEntity
  6
Continuous
100
AcDbLine
 10
6.919025942599999
 20
1.1688049136333332
 30
0.0
 11
6.928846870116479
 21
1.1589839861168534
 31
0.0
  0
LINE
  5
219671d6
330
1F
  8
Layer
100
AcDbEntity
  6
Continuous
100
AcDbLine
 10
6.928846870116479
 20
1.1589839861168534
 30
0.0
 11
6.866346870116479
 21
1.0964839861168534
 31
0.0
  0
LINE
  5
4e2f0fa1
330
1F
  8
Layer
100
AcDbEntity
  6
Continuous
100
AcDbLine
 10
6.866346870116479
 20
1.0964839861168534
 30
0.0
 11
6.846705015083519
 21
1.116125841149813
 31
0.0
  0
LINE
  5
09276b09
330
1F
  8
Layer
100
AcDbEntity
  6
Continuous
100
AcDbLine
 10
6.846705015083519
 20
1.116125841149813
 30
0.0
 11
6.909205015083519
 21
1.178625841149813
 31
0.0
  0
LINE
  5
abe0418d
330
1F
  8
Layer
100
AcDbEntity
  6
Continuous
100
AcDbLine
 10
6.909205015083519
 20
1.178625841149813
 30
0.0
 11
6.919025942599999
 21
1.1688049136333332
 31
0.0
  0
LINE
  5
9b83128a
330
1F
  8
Layer
100
AcDbEntity
  6
Continuous
100
AcDbLine
 10
7.0074142903
 20
1.1688049136333332
 30
0.0
 11
7.01723521781648
 21
1.1589839861168534
 31
0.0
  0
LINE
  5
ba2552bc
330
1F
  8
Layer
100
AcDbEntity
  6
Continuous
100
AcDbLine
 10
7.01723521781648
 20
1.1589839861168534
 30
0.0
 11
6.95473521781648
 21
1.0964839861168534
 31
0.0
  0
LINE
  5
aa7ac623
330
1F
  8
Layer
100
AcDbEntity
  6
Continuous
100
AcDbLine
 10
6.95473521781648
 20
1.0964839861168534
 30
0.0
 11
6.93509336278352
 21
1.116125841149813
 31
0.0
  0
LINE
  5
3154c617
330
1F
  8
Layer
100
AcDbEntity
  6
Continuous
100
AcDbLine
 10
6.93509336278352
 20
1.116125841149813
 30
0.0
 11
6.99759336278352
 21
1.178625841149813
 31
0.0
  0
LINE
  5
1814a56c
330
1F
  8
Layer
100
AcDbEntity
  6
Continuous
100
AcDbLine
 10
6.99759336278352
 20
1.178625841149813
 30
0.0
 11
7.0074142903
 21
1.1688049136333332
 31
0.0
  0
LINE
  5
03a6e989
330
1F
  8
Layer
100
AcDbEntity
  6
Continuous
100
AcDbLine
 10
7.0958026378999985
 20
1.1688049136333332
 30
0.0
 11
7.1056235654164785
 21
1.1589839861168534
 31
0.0
  0
LINE
  5
01842b25
330
1F
  8
Layer
100
AcDbEntity
  6
Continuous
100
AcDbLine
 10
7.1056235654164785
 20
1.1589839861168534
 30
0.0
 11
7.0431235654164785
 21
1.0964839861168534
 31
0.0
  0
LINE
  5
cc4cf17a
330
1F
  8
Layer
100
AcDbEntity
  6
Continuous
100
AcDbLine
 10
7.0431235654164785
 20
1.0964839861168534
 30
0.0
 11
7.0234817103835185
 21
1.116125841149813
 31
0.0
  0
LINE
  5
6d497afd
330
1F
  8
Layer
100
AcDbEntity
  6
Continuous
100
AcDbLine
 10
7.0234817103835185
 20
1.116125841149813
 30
0.0
 11
7.0859817103835185
 21
1.178625841149813
 31
0.0
  0
LINE
  5
ebc415db
330
1F
  8
Layer
100
AcDbEntity
  6
Continuous
100
AcDbLine
 10
7.0859817103835185
 20
1.178625841149813
 30
0.0
 11
7.0958026378999985
 21
1.1688049136333332
 31
0.0
  0
LINE
  5
65e1192d
330
1F
  8
Layer
100
AcDbEntity
  6
Continuous
100
AcDbLine
 10
7.184190985599999
 20
1.1688049136333332
 30
0.0
 11
7.194011913116479
 21
1.1589839861168534
 31
0.0
  0
LINE
  5
c8974817
330
1F
  8
Layer
100
AcDbEntity
  6
Continuous
100
AcDbLine
 10
7.194011913116479
 20
1.1589839861168534
 30
0.0
 11
7.131511913116479
 21
1.0964839861168534
 31
0.0
  0
LINE
  5
bdd10899
330
1F
  8
Layer
100
AcDbEntity
  6
Continuous
100
AcDbLine
 10
7.131511913116479
 20
1.0964839861168534
 30
0.0
 11
7.111870058083519
 21
1.116125841149813
 31
0.0
  0
LINE
  5
42b9e8aa
330
1F
  8
Layer
100
AcDbEntity
  6
Continuous
100
AcDbLine
 10
7.111870058083519
 20
1.116125841149813
 30
0.0
 11
7.174370058083519
 21
1.178625841149813
 31
0.0
  0
LINE
  5
21615a16
330
1F
  8
Layer
100
AcDbEntity
  6
Continuous
100
AcDbLine
 10
7.174370058083519
 20
1.178625841149813
 30
0.0
 11
7.184190985599999
 21
1.1688049136333332
 31
0.0
  0
LINE
  5
c1eae47f
330
1F
  8
Layer
100
AcDbEntity
  6
Continuous
100
AcDbLine
 10
7.2725793331999995
 20
1.1688049136333332
 30
0.0
 11
7.2824002607164795
 21
1.1589839861168534
 31
0.0
  0
LINE
  5
186949cb
330
1F
  8
Layer
100
AcDbEntity
  6
Continuous
100
AcDbLine
 10
7.2824002607164795
 20
1.1589839861168534
 30
0.0
 11
7.2199002607164795
 21
1.0964839861168534
 31
0.0
  0
LINE
  5
e301164e
330
1F
  8
Layer
100
AcDbEntity
  6
Continuous
100
AcDbLine
 10
7.2199002607164795
 20
1.0964839861168534
 30
0.0
 11
7.2002584056835195
 21
1.116125841149813
 31
0.0
  0
LINE
  5
5aa2a40a
330
1F
  8
Layer
100
AcDbEntity
  6
Continuous
100
AcDbLine
 10
7.2002584056835195
 20
1.116125841149813
 30
0.0
 11
7.2627584056835195
 21
1.178625841149813
 31
0.0
  0
LINE
  5
20b52d8e
330
1F
  8
Layer
100
AcDbEntity
  6
Continuous
100
AcDbLine
 10
7.2627584056835195
 20
1.178625841149813
 30
0.0
 11
7.2725793331999995
 21
1.1688049136333332
 31
0.0
  0
LINE
  5
616286dc
330
1F
  8
Layer
100
AcDbEntity
  6
Continuous
100
AcDbLine
 10
7.3609676809
 20
1.1688049136333332
 30
0.0
 11
7.37078860841648
 21
1.1589839861168534
 31
0.0
  0
LINE
  5
0b7cea60
330
1F
  8
Layer
100
AcDbEntity
  6
Continuous
100
AcDbLine
 10
7.37078860841648
 20
1.1589839861168534
 30
0.0
 11
7.30828860841648
 21
1.0964839861168534
 31
0.0
  0
LINE
  5
f026bcdc
330
1F
  8
Layer
100
AcDbEntity
  6
Continuous
100
AcDbLine
 10
7.30828860841648
 20
1.0964839861168534
 30
0.0
 11
7.28864675338352
 21
1.116125841149813
 31
0.0
  0
LINE
  5
2a9772e3
330
1F
  8
Layer
100
AcDbEntity
  6
Continuous
100
AcDbLine
 10
7.28864675338352
 20
1.116125841149813
 30
0.0
 11
7.35114675338352
 21
1.178625841149813
 31
0.0
  0
LINE
  5
eec56c0b
330
1F
  8
Layer
100
AcDbEntity
  6
Continuous
100
AcDbLine
 10
7.35114675338352
 20
1.178625841149813
 30
0.0
 11
7.3609676809
 21
1.1688049136333332
 31
0.0
  0
LINE
  5
bb6dc9e0
330
1F
  8
Layer
100
AcDbEntity
  6
Continuous
100
AcDbLine
 10
7.4493560285000004
 20
1.1688049136333332
 30
0.0
 11
7.4591769560164805
 21
1.1589839861168534
 31
0.0
  0
LINE
  5
1e5e6761
330
1F
  8
Layer
100
AcDbEntity
  6
Continuous
100
AcDbLine
 10
7.4591769560164805
 20
1.1589839861168534
 30
0.0
 11
7.3966769560164805
 21
1.0964839861168534
 31
0.0
  0
LINE
  5
f5ce753c
330
1F
  8
Layer
100
AcDbEntity
  6
Continuous
100
AcDbLine
 10
7.3966769560164805
 20
1.0964839861168534
 30
0.0
 11
7.37703510098352
 21
1.116125841149813
 31
0.0
  0
LINE
  5
8344d131
330
1F
  8
Layer
100
AcDbEntity
  6
Continuous
100
AcDbLine
 10
7.37703510098352
 20
1.116125841149813
 30
0.0
 11
7.43953510098352
 21
1.178625841149813
 31
0.0
  0
LINE
  5
51007ca5
330
1F
  8
Layer
100
AcDbEntity
  6
Continuous
100
AcDbLine
 10
7.43953510098352
 20
1.178625841149813
 30
0.0
 11
7.4493560285000004
 21
1.1688049136333332
 31
0.0
  0
LINE
  5
c1670dfc
330
1F
  8
Layer
100
AcDbEntity
  6
Continuous
100
AcDbLine
 10
7.537744376200001
 20
1.1688049136333332
 30
0.0
 11
7.547565303716481
 21
1.1589839861168534
 31
0.0
  0
LINE
  5
87286b06
330
1F
  8
Layer
100
AcDbEntity
  6
Continuous
100
AcDbLine
 10
7.547565303716481
 20
1.1589839861168534
 30
0.0
 11
7.485065303716481
 21
1.0964839861168534
 31
0.0
  0
LINE
  5
fb1b3aab
330
1F
  8
Layer
100
AcDbEntity
  6
Continuous
100
AcDbLine
 10
7.485065303716481
 20
1.0964839861168534
 30
0.0
 11
7.465423448683521
 21
1.116125841149813
 31
0.0
  0
LINE
  5
8d427ae6
330
1F
  8
Layer
100
AcDbEntity
  6
Continuous
100
AcDbLine
 10
7.465423448683521
 20
1.116125841149813
 30
0.0
 11
7.527923448683521
 21
1.178625841149813
 31
0.0
  0
LINE
  5
3bf76a29
330
1F
  8
Layer
100
AcDbEntity
  6
Continuous
100
AcDbLine
 10
7.527923448683521
 20
1.178625841149813
 30
0.0
 11
7.537744376200001
 21
1.1688049136333332
 31
0.0
  0
LINE
  5
d784aa0e
330
1F
  8
Layer
100
AcDbEntity
  6
Continuous
100
AcDbLine
 10
7.6261327238
 20
1.1688049136333332
 30
0.0
 11
7.63595365131648
 21
1.1589839861168534
 31
0.0
  0
LINE
  5
bf3ae0b3
330
1F
  8
Layer
100
AcDbEntity
  6
Continuous
100
AcDbLine
 10
7.63595365131648
 20
1.1589839861168534
 30
0.0
 11
7.57345365131648
 21
1.0964839861168534
 31
0.0
  0
LINE
  5
90b375b0
330
1F
  8
Layer
100
AcDbEntity
  6
Continuous
100
AcDbLine
 10
7.57345365131648
 20
1.0964839861168534
 30
0.0
 11
7.55381179628352
 21
1.116125841149813
 31
0.0
  0
LINE
  5
f05cbdf2
330
1F
  8
Layer
100
AcDbEntity
  6
Continuous
100
AcDbLine
 10
7.55381179628352
 20
1.116125841149813
 30
0.0
 11
7.61631179628352
 21
1.178625841149813
 31
0.0
  0
LINE
  5
991f8b7e
330
1F
  8
Layer
100
AcDbEntity
  6
Continuous
100
AcDbLine
 10
7.61631179628352
 20
1.178625841149813
 30
0.0
 11
7.6261327238
 21
1.1688049136333332
 31
0.0
  0
LINE
  5
463c0b5b
330
1F
  8
Layer
100
AcDbEntity
  6
Continuous
100
AcDbLine
 10
7.7144210715
 20
1.168704913633333
 30
0.0
 11
7.72424199901648
 21
1.1588839861168532
 31
0.0
  0
LINE
  5
aa7099ee
330
1F
  8
Layer
100
AcDbEntity
  6
Continuous
100
AcDbLine
 10
7.72424199901648
 20
1.1588839861168532
 30
0.0
 11
7.66184199901648
 21
1.0964839861168534
 31
0.0
  0
LINE
  5
729ebf81
330
1F
  8
Layer
100
AcDbEntity
  6
Continuous
100
AcDbLine
 10
7.66184199901648
 20
1.0964839861168534
 30
0.0
 11
7.64220014398352
 21
1.116125841149813
 31
0.0
  0
LINE
  5
a565a83e
330
1F
  8
Layer
100
AcDbEntity
  6
Continuous
100
AcDbLine
 10
7.64220014398352
 20
1.116125841149813
 30
0.0
 11
7.70460014398352
 21
1.1785258411498127
 31
0.0
  0
LINE
  5
3a4aa11a
330
1F
  8
Layer
100
AcDbEntity
  6
Continuous
100
AcDbLine
 10
7.70460014398352
 20
1.1785258411498127
 30
0.0
 11
7.7144210715
 21
1.168704913633333
 31
0.0
  0
LINE
  5
8968707b
330
1F
  8
Layer
100
AcDbEntity
  6
Continuous
100
AcDbLine
 10
7.802809419099999
 20
1.168704913633333
 30
0.0
 11
7.812630346616479
 21
1.1588839861168532
 31
0.0
  0
LINE
  5
845c8480
330
1F
  8
Layer
100
AcDbEntity
  6
Continuous
100
AcDbLine
 10
7.812630346616479
 20
1.1588839861168532
 30
0.0
 11
7.750230346616479
 21
1.0964839861168534
 31
0.0
  0
LINE
  5
ca1c0359
330
1F
  8
Layer
100
AcDbEntity
  6
Continuous
100
AcDbLine
 10
7.750230346616479
 20
1.0964839861168534
 30
0.0
 11
7.730588491583519
 21
1.116125841149813
 31
0.0
  0
LINE
  5
abf363fb
330
1F
  8
Layer
100
AcDbEntity
  6
Continuous
100
AcDbLine
 10
7.730588491583519
 20
1.116125841149813
 30
0.0
 11
7.792988491583519
 21
1.1785258411498127
 31
0.0
  0
LINE
  5
1a04d75d
330
1F
  8
Layer
100
AcDbEntity
  6
Continuous
100
AcDbLine
 10
7.792988491583519
 20
1.1785258411498127
 30
0.0
 11
7.802809419099999
 21
1.168704913633333
 31
0.0
  0
LINE
  5
08d79920
330
1F
  8
Layer
100
AcDbEntity
  6
Continuous
100
AcDbLine
 10
7.8911977667999995
 20
1.168704913633333
 30
0.0
 11
7.9010186943164795
 21
1.1588839861168532
 31
0.0
  0
LINE
  5
06f97e3c
330
1F
  8
Layer
100
AcDbEntity
  6
Continuous
100
AcDbLine
 10
7.9010186943164795
 20
1.1588839861168532
 30
0.0
 11
7.838618694316479
 21
1.0964839861168534
 31
0.0
  0
LINE
  5
b7424584
330
1F
  8
Layer
100
AcDbEntity
  6
Continuous
100
AcDbLine
 10
7.838618694316479
 20
1.0964839861168534
 30
0.0
 11
7.818976839283519
 21
1.116125841149813
 31
0.0
  0
LINE
  5
bd583bea
330
1F
  8
Layer
100
AcDbEntity
  6
Continuous
100
AcDbLine
 10
7.818976839283519
 20
1.116125841149813
 30
0.0
 11
7.8813768392835195
 21
1.1785258411498127
 31
0.0
  0
LINE
  5
cbf592e8
330
1F
  8
Layer
100
AcDbEntity
  6
Continuous
100
AcDbLine
 10
7.8813768392835195
 20
1.1785258411498127
 30
0.0
 11
7.8911977667999995
 21
1.168704913633333
 31
0.0
  0
LINE
  5
0c5310ca
330
1F
  8
Layer
100
AcDbEntity
  6
Continuous
100
AcDbLine
 10
7.9795861144
 20
1.168704913633333
 30
0.0
 11
7.98940704191648
 21
1.1588839861168532
 31
0.0
  0
LINE
  5
640bc8d7
330
1F
  8
Layer
100
AcDbEntity
  6
Continuous
100
AcDbLine
 10
7.98940704191648
 20
1.1588839861168532
 30
0.0
 11
7.92700704191648
 21
1.0964839861168534
 31
0.0
  0
LINE
  5
53d711e1
330
1F
  8
Layer
100
AcDbEntity
  6
Continuous
100
AcDbLine
 10
7.92700704191648
 20
1.0964839861168534
 30
0.0
 11
7.90736518688352
 21
1.116125841149813
 31
0.0
  0
LINE
  5
b8a7196d
330
1F
  8
Layer
100
AcDbEntity
  6
Continuous
100
AcDbLine
 10
7.90736518688352
 20
1.116125841149813
 30
0.0
 11
7.96976518688352
 21
1.1785258411498127
 31
0.0
  0
LINE
  5
ecacad2e
330
1F
  8
Layer
100
AcDbEntity
  6
Continuous
100
AcDbLine
 10
7.96976518688352
 20
1.1785258411498127
 30
0.0
 11
7.9795861144
 21
1.168704913633333
 31
0.0
  0
LINE
  5
7d666f1d
330
1F
  8
Layer
100
AcDbEntity
  6
Continuous
100
AcDbLine
 10
8.067974462099999
 20
1.168704913633333
 30
0.0
 11
8.077795389616478
 21
1.1588839861168532
 31
0.0
  0
LINE
  5
fc9ea723
330
1F
  8
Layer
100
AcDbEntity
  6
Continuous
100
AcDbLine
 10
8.077795389616478
 20
1.1588839861168532
 30
0.0
 11
8.015395389616478
 21
1.0964839861168534
 31
0.0
  0
LINE
  5
37714677
330
1F
  8
Layer
100
AcDbEntity
  6
Continuous
100
AcDbLine
 10
8.015395389616478
 20
1.0964839861168534
 30
0.0
 11
7.9957535345835185
 21
1.116125841149813
 31
0.0
  0
LINE
  5
3eabad5c
330
1F
  8
Layer
100
AcDbEntity
  6
Continuous
100
AcDbLine
 10
7.9957535345835185
 20
1.116125841149813
 30
0.0
 11
8.05815353458352
 21
1.1785258411498127
 31
0.0
  0
LINE
  5
1b9f10ec
330
1F
  8
Layer
100
AcDbEntity
  6
Continuous
100
AcDbLine
 10
8.05815353458352
 20
1.1785258411498127
 30
0.0
 11
8.067974462099999
 21
1.168704913633333
 31
0.0
  0
LINE
  5
3fd1704f
330
1F
  8
Layer
100
AcDbEntity
  6
Continuous
100
AcDbLine
 10
8.156362809700001
 20
1.168704913633333
 30
0.0
 11
8.16618373721648
 21
1.1588839861168532
 31
0.0
  0
LINE
  5
2629cfd1
330
1F
  8
Layer
100
AcDbEntity
  6
Continuous
100
AcDbLine
 10
8.16618373721648
 20
1.1588839861168532
 30
0.0
 11
8.10378373721648
 21
1.0964839861168534
 31
0.0
  0
LINE
  5
06d16517
330
1F
  8
Layer
100
AcDbEntity
  6
Continuous
100
AcDbLine
 10
8.10378373721648
 20
1.0964839861168534
 30
0.0
 11
8.084141882183522
 21
1.116125841149813
 31
0.0
  0
LINE
  5
d14367ac
330
1F
  8
Layer
100
AcDbEntity
  6
Continuous
100
AcDbLine
 10
8.084141882183522
 20
1.116125841149813
 30
0.0
 11
8.146541882183522
 21
1.1785258411498127
 31
0.0
  0
LINE
  5
6d72b66c
330
1F
  8
Layer
100
AcDbEntity
  6
Continuous
100
AcDbLine
 10
8.146541882183522
 20
1.1785258411498127
 30
0.0
 11
8.156362809700001
 21
1.168704913633333
 31
0.0
  0
LINE
  5
7340962f
330
1F
  8
Layer
100
AcDbEntity
  6
Continuous
100
AcDbLine
 10
8.2447511574
 20
1.168704913633333
 30
0.0
 11
8.254572084916479
 21
1.1588839861168532
 31
0.0
  0
LINE
  5
0ce9e885
330
1F
  8
Layer
100
AcDbEntity
  6
Continuous
100
AcDbLine
 10
8.254572084916479
 20
1.1588839861168532
 30
0.0
 11
8.192172084916479
 21
1.0964839861168534
 31
0.0
  0
LINE
  5
2097a5a6
330
1F
  8
Layer
100
AcDbEntity
  6
Continuous
100
AcDbLine
 10
8.192172084916479
 20
1.0964839861168534
 30
0.0
 11
8.17253022988352
 21
1.116125841149813
 31
0.0
  0
LINE
  5
73a2cd89
330
1F
  8
Layer
100
AcDbEntity
  6
Continuous
100
AcDbLine
 10
8.17253022988352
 20
1.116125841149813
 30
0.0
 11
8.23493022988352
 21
1.1785258411498127
 31
0.0
  0
LINE
  5
d00b0dd3
330
1F
  8
Layer
100
AcDbEntity
  6
Continuous
100
AcDbLine
 10
8.23493022988352
 20
1.1785258411498127
 30
0.0
 11
8.2447511574
 21
1.168704913633333
 31
0.0
  0
LINE
  5
f26b2019
330
1F
  8
Layer
100
AcDbEntity
  6
Continuous
100
AcDbLine
 10
8.333139505
 20
1.168704913633333
 30
0.0
 11
8.34296043251648
 21
1.1588839861168532
 31
0.0
  0
LINE
  5
55c729eb
330
1F
  8
Layer
100
AcDbEntity
  6
Continuous
100
AcDbLine
 10
8.34296043251648
 20
1.1588839861168532
 30
0.0
 11
8.280560432516479
 21
1.0964839861168534
 31
0.0
  0
LINE
  5
c0c6a0c8
330
1F
  8
Layer
100
AcDbEntity
  6
Continuous
100
AcDbLine
 10
8.280560432516479
 20
1.0964839861168534
 30
0.0
 11
8.26091857748352
 21
1.116125841149813
 31
0.0
  0
LINE
  5
7beb4792
330
1F
  8
Layer
100
AcDbEntity
  6
Continuous
100
AcDbLine
 10
8.26091857748352
 20
1.116125841149813
 30
0.0
 11
8.323318577483521
 21
1.1785258411498127
 31
0.0
  0
LINE
  5
5f2bd6d6
330
1F
  8
Layer
100
AcDbEntity
  6
Continuous
100
AcDbLine
 10
8.323318577483521
 20
1.1785258411498127
 30
0.0
 11
8.333139505
 21
1.168704913633333
 31
0.0
  0
LINE
  5
bed0ff71
330
1F
  8
Layer
100
AcDbEntity
  6
Continuous
100
AcDbLine
 10
8.4215278527
 20
1.168704913633333
 30
0.0
 11
8.43134878021648
 21
1.1588839861168532
 31
0.0
  0
LINE
  5
16947fc5
330
1F
  8
Layer
100
AcDbEntity
  6
Continuous
100
AcDbLine
 10
8.43134878021648
 20
1.1588839861168532
 30
0.0
 11
8.36894878021648
 21
1.0964839861168534
 31
0.0
  0
LINE
  5
98a2755b
330
1F
  8
Layer
100
AcDbEntity
  6
Continuous
100
AcDbLine
 10
8.36894878021648
 20
1.0964839861168534
 30
0.0
 11
8.349306925183521
 21
1.116125841149813
 31
0.0
  0
LINE
  5
adadad50
330
1F
  8
Layer
100
AcDbEntity
  6
Continuous
100
AcDbLine
 10
8.349306925183521
 20
1.116125841149813
 30
0.0
 11
8.411706925183521
 21
1.1785258411498127
 31
0.0
  0
LINE
  5
facf438a
330
1F
  8
Layer
100
AcDbEntity
  6
Continuous
100
AcDbLine
 10
8.411706925183521
 20
1.1785258411498127
 30
0.0
 11
8.4215278527
 21
1.168704913633333
 31
0.0
  0
LINE
  5
6e218fe4
330
1F
  8
Layer
100
AcDbEntity
  6
Continuous
100
AcDbLine
 10
8.5099162003
 20
1.168704913633333
 30
0.0
 11
8.519737127816478
 21
1.1588839861168532
 31
0.0
  0
LINE
  5
48f79a90
330
1F
  8
Layer
100
AcDbEntity
  6
Continuous
100
AcDbLine
 10
8.519737127816478
 20
1.1588839861168532
 30
0.0
 11
8.457337127816478
 21
1.0964839861168534
 31
0.0
  0
LINE
  5
c024c960
330
1F
  8
Layer
100
AcDbEntity
  6
Continuous
100
AcDbLine
 10
8.457337127816478
 20
1.0964839861168534
 30
0.0
 11
8.43769527278352
 21
1.116125841149813
 31
0.0
  0
LINE
  5
c9cc80e3
330
1F
  8
Layer
100
AcDbEntity
  6
Continuous
100
AcDbLine
 10
8.43769527278352
 20
1.116125841149813
 30
0.0
 11
8.50009527278352
 21
1.1785258411498127
 31
0.0
  0
LINE
  5
1c78eba7
330
1F
  8
Layer
100
AcDbEntity
  6
Continuous
100
AcDbLine
 10
8.50009527278352
 20
1.1785258411498127
 30
0.0
 11
8.5099162003
 21
1.168704913633333
 31
0.0
  0
LINE
  5
054dcf18
330
1F
  8
Layer
100
AcDbEntity
  6
Continuous
100
AcDbLine
 10
8.598304548
 20
1.168704913633333
 30
0.0
 11
8.608125475516479
 21
1.1588839861168532
 31
0.0
  0
LINE
  5
d2ac4ce1
330
1F
  8
Layer
100
AcDbEntity
  6
Continuous
100
AcDbLine
 10
8.608125475516479
 20
1.1588839861168532
 30
0.0
 11
8.545725475516479
 21
1.0964839861168534
 31
0.0
  0
LINE
  5
a3bff0cb
330
1F
  8
Layer
100
AcDbEntity
  6
Continuous
100
AcDbLine
 10
8.545725475516479
 20
1.0964839861168534
 30
0.0
 11
8.52608362048352
 21
1.116125841149813
 31
0.0
  0
LINE
  5
7479942d
330
1F
  8
Layer
100
AcDbEntity
  6
Continuous
100
AcDbLine
 10
8.52608362048352
 20
1.116125841149813
 30
0.0
 11
8.58848362048352
 21
1.1785258411498127
 31
0.0
  0
LINE
  5
594d64bd
330
1F
  8
Layer
100
AcDbEntity
  6
Continuous
100
AcDbLine
 10
8.58848362048352
 20
1.1785258411498127
 30
0.0
 11
8.598304548
 21
1.168704913633333
 31
0.0
  0
LINE
  5
78698a42
330
1F
  8
Layer
100
AcDbEntity
  6
Continuous
100
AcDbLine
 10
8.686692895599998
 20
1.168704913633333
 30
0.0
 11
8.696513823116478
 21
1.1588839861168532
 31
0.0
  0
LINE
  5
00f2bf2e
330
1F
  8
Layer
100
AcDbEntity
  6
Continuous
100
AcDbLine
 10
8.696513823116478
 20
1.1588839861168532
 30
0.0
 11
8.63411382311648
 21
1.0964839861168534
 31
0.0
  0
LINE
  5
af920fcc
330
1F
  8
Layer
100
AcDbEntity
  6
Continuous
100
AcDbLine
 10
8.63411382311648
 20
1.0964839861168534
 30
0.0
 11
8.614471968083521
 21
1.116125841149813
 31
0.0
  0
LINE
  5
a025691e
330
1F
  8
Layer
100
AcDbEntity
  6
Continuous
100
AcDbLine
 10
8.614471968083521
 20
1.116125841149813
 30
0.0
 11
8.67687196808352
 21
1.1785258411498127
 31
0.0
  0
LINE
  5
af350b54
330
1F
  8
Layer
100
AcDbEntity
  6
Continuous
100
AcDbLine
 10
8.67687196808352
 20
1.1785258411498127
 30
0.0
 11
8.686692895599998
 21
1.168704913633333
 31
0.0
  0
LINE
  5
a0db0bd3
330
1F
  8
Layer
100
AcDbEntity
  6
Continuous
100
AcDbLine
 10
8.775081243299999
 20
1.168704913633333
 30
0.0
 11
8.784902170816478
 21
1.1588839861168532
 31
0.0
  0
LINE
  5
40898d7f
330
1F
  8
Layer
100
AcDbEntity
  6
Continuous
100
AcDbLine
 10
8.784902170816478
 20
1.1588839861168532
 30
0.0
 11
8.722502170816478
 21
1.0964839861168534
 31
0.0
  0
LINE
  5
03378124
330
1F
  8
Layer
100
AcDbEntity
  6
Continuous
100
AcDbLine
 10
8.722502170816478
 20
1.0964839861168534
 30
0.0
 11
8.70286031578352
 21
1.116125841149813
 31
0.0
  0
LINE
  5
56595837
330
1F
  8
Layer
100
AcDbEntity
  6
Continuous
100
AcDbLine
 10
8.70286031578352
 20
1.116125841149813
 30
0.0
 11
8.76526031578352
 21
1.1785258411498127
 31
0.0
  0
LINE
  5
be6da638
330
1F
  8
Layer
100
AcDbEntity
  6
Continuous
100
AcDbLine
 10
8.76526031578352
 20
1.1785258411498127
 30
0.0
 11
8.775081243299999
 21
1.168704913633333
 31
0.0
  0
LINE
  5
a26b57e9
330
1F
  8
Layer
100
AcDbEntity
  6
Continuous
100
AcDbLine
 10
8.8634695909
 20
1.168704913633333
 30
0.0
 11
8.873290518416479
 21
1.1588839861168532
 31
0.0
  0
LINE
  5
023d3cea
330
1F
  8
Layer
100
AcDbEntity
  6
Continuous
100
AcDbLine
 10
8.873290518416479
 20
1.1588839861168532
 30
0.0
 11
8.81089051841648
 21
1.0964839861168534
 31
0.0
  0
LINE
  5
dfffcd9a
330
1F
  8
Layer
100
AcDbEntity
  6
Continuous
100
AcDbLine
 10
8.81089051841648
 20
1.0964839861168534
 30
0.0
 11
8.791248663383522
 21
1.116125841149813
 31
0.0
  0
LINE
  5
cdf45293
330
1F
  8
Layer
100
AcDbEntity
  6
Continuous
100
AcDbLine
 10
8.791248663383522
 20
1.116125841149813
 30
0.0
 11
8.85364866338352
 21
1.1785258411498127
 31
0.0
  0
LINE
  5
16118c16
330
1F
  8
Layer
100
AcDbEntity
  6
Continuous
100
AcDbLine
 10
8.85364866338352
 20
1.1785258411498127
 30
0.0
 11
8.8634695909
 21
1.168704913633333
 31
0.0
  0
LINE
  5
dd563843
330
1F
  8
Layer
100
AcDbEntity
  6
Continuous
100
AcDbLine
 10
8.9518579386
 20
1.168704913633333
 30
0.0
 11
8.961678866116479
 21
1.1588839861168532
 31
0.0
  0
LINE
  5
f9a0e3da
330
1F
  8
Layer
100
AcDbEntity
  6
Continuous
100
AcDbLine
 10
8.961678866116479
 20
1.1588839861168532
 30
0.0
 11
8.899278866116479
 21
1.0964839861168534
 31
0.0
  0
LINE
  5
8485eea3
330
1F
  8
Layer
100
AcDbEntity
  6
Continuous
100
AcDbLine
 10
8.899278866116479
 20
1.0964839861168534
 30
0.0
 11
8.87963701108352
 21
1.116125841149813
 31
0.0
  0
LINE
  5
3b53e3b3
330
1F
  8
Layer
100
AcDbEntity
  6
Continuous
100
AcDbLine
 10
8.87963701108352
 20
1.116125841149813
 30
0.0
 11
8.94203701108352
 21
1.1785258411498127
 31
0.0
  0
LINE
  5
5f9685c3
330
1F
  8
Layer
100
AcDbEntity
  6
Continuous
100
AcDbLine
 10
8.94203701108352
 20
1.1785258411498127
 30
0.0
 11
8.9518579386
 21
1.168704913633333
 31
0.0
  0
LINE
  5
c6024b86
330
1F
  8
Layer
100
AcDbEntity
  6
Continuous
100
AcDbLine
 10
9.0402462862
 20
1.168704913633333
 30
0.0
 11
9.05006721371648
 21
1.1588839861168532
 31
0.0
  0
LINE
  5
0d0fe77d
330
1F
  8
Layer
100
AcDbEntity
  6
Continuous
100
AcDbLine
 10
9.05006721371648
 20
1.1588839861168532
 30
0.0
 11
8.98766721371648
 21
1.0964839861168534
 31
0.0
  0
LINE
  5
21f21a3f
330
1F
  8
Layer
100
AcDbEntity
  6
Continuous
100
AcDbLine
 10
8.98766721371648
 20
1.0964839861168534
 30
0.0
 11
8.968025358683521
 21
1.116125841149813
 31
0.0
  0
LINE
  5
52fe0f85
330
1F
  8
Layer
100
AcDbEntity
  6
Continuous
100
AcDbLine
 10
8.968025358683521
 20
1.116125841149813
 30
0.0
 11
9.030425358683521
 21
1.1785258411498127
 31
0.0
  0
LINE
  5
a76b01b5
330
1F
  8
Layer
100
AcDbEntity
  6
Continuous
100
AcDbLine
 10
9.030425358683521
 20
1.1785258411498127
 30
0.0
 11
9.0402462862
 21
1.168704913633333
 31
0.0
  0
LINE
  5
97af03a5
330
1F
  8
Layer
100
AcDbEntity
  6
Continuous
100
AcDbLine
 10
9.1286346339
 20
1.168704913633333
 30
0.0
 11
9.13845556141648
 21
1.1588839861168532
 31
0.0
  0
LINE
  5
68d5c403
330
1F
  8
Layer
100
AcDbEntity
  6
Continuous
100
AcDbLine
 10
9.13845556141648
 20
1.1588839861168532
 30
0.0
 11
9.07605556141648
 21
1.0964839861168534
 31
0.0
  0
LINE
  5
f70fa561
330
1F
  8
Layer
100
AcDbEntity
  6
Continuous
100
AcDbLine
 10
9.07605556141648
 20
1.0964839861168534
 30
0.0
 11
9.056413706383522
 21
1.116125841149813
 31
0.0
  0
LINE
  5
2e293176
330
1F
  8
Layer
100
AcDbEntity
  6
Continuous
100
AcDbLine
 10
9.056413706383522
 20
1.116125841149813
 30
0.0
 11
9.118813706383522
 21
1.1785258411498127
 31
0.0
  0
LINE
  5
3a8116e3
330
1F
  8
Layer
100
AcDbEntity
  6
Continuous
100
AcDbLine
 10
9.118813706383522
 20
1.1785258411498127
 30
0.0
 11
9.1286346339
 21
1.168704913633333
 31
0.0
  0
LINE
  5
bef4e47b
330
1F
  8
Layer
100
AcDbEntity
  6
Continuous
100
AcDbLine
 10
9.2170229815
 20
1.168704913633333
 30
0.0
 11
9.226843909016479
 21
1.1588839861168532
 31
0.0
  0
LINE
  5
6720c52e
330
1F
  8
Layer
100
AcDbEntity
  6
Continuous
100
AcDbLine
 10
9.226843909016479
 20
1.1588839861168532
 30
0.0
 11
9.164443909016478
 21
1.0964839861168534
 31
0.0
  0
LINE
  5
57f733eb
330
1F
  8
Layer
100
AcDbEntity
  6
Continuous
100
AcDbLine
 10
9.164443909016478
 20
1.0964839861168534
 30
0.0
 11
9.14480205398352
 21
1.116125841149813
 31
0.0
  0
LINE
  5
3fa5c7bc
330
1F
  8
Layer
100
AcDbEntity
  6
Continuous
100
AcDbLine
 10
9.14480205398352
 20
1.116125841149813
 30
0.0
 11
9.20720205398352
 21
1.1785258411498127
 31
0.0
  0
LINE
  5
c88097de
330
1F
  8
Layer
100
AcDbEntity
  6
Continuous
100
AcDbLine
 10
9.20720205398352
 20
1.1785258411498127
 30
0.0
 11
9.2170229815
 21
1.168704913633333
 31
0.0
  0
LINE
  5
4bd8312a
330
1F
  8
Layer
100
AcDbEntity
  6
Continuous
100
AcDbLine
 10
9.3054113292
 20
1.168704913633333
 30
0.0
 11
9.31523225671648
 21
1.1588839861168532
 31
0.0
  0
LINE
  5
3be3245b
330
1F
  8
Layer
100
AcDbEntity
  6
Continuous
100
AcDbLine
 10
9.31523225671648
 20
1.1588839861168532
 30
0.0
 11
9.252832256716479
 21
1.0964839861168534
 31
0.0
  0
LINE
  5
e1d5fd98
330
1F
  8
Layer
100
AcDbEntity
  6
Continuous
100
AcDbLine
 10
9.252832256716479
 20
1.0964839861168534
 30
0.0
 11
9.23319040168352
 21
1.116125841149813
 31
0.0
  0
LINE
  5
00396e24
330
1F
  8
Layer
100
AcDbEntity
  6
Continuous
100
AcDbLine
 10
9.23319040168352
 20
1.116125841149813
 30
0.0
 11
9.295590401683521
 21
1.1785258411498127
 31
0.0
  0
LINE
  5
70f1c103
330
1F
  8
Layer
100
AcDbEntity
  6
Continuous
100
AcDbLine
 10
9.295590401683521
 20
1.1785258411498127
 30
0.0
 11
9.3054113292
 21
1.168704913633333
 31
0.0
  0
LINE
  5
8146714b
330
1F
  8
Layer
100
AcDbEntity
  6
Continuous
100
AcDbLine
 10
9.393799676799999
 20
1.168704913633333
 30
0.0
 11
9.403620604316478
 21
1.1588839861168532
 31
0.0
  0
LINE
  5
2df34055
330
1F
  8
Layer
100
AcDbEntity
  6
Continuous
100
AcDbLine
 10
9.403620604316478
 20
1.1588839861168532
 30
0.0
 11
9.341220604316478
 21
1.0964839861168534
 31
0.0
  0
LINE
  5
812c8bf7
330
1F
  8
Layer
100
AcDbEntity
  6
Continuous
100
AcDbLine
 10
9.341220604316478
 20
1.0964839861168534
 30
0.0
 11
9.32157874928352
 21
1.116125841149813
 31
0.0
  0
LINE
  5
f1365ca0
330
1F
  8
Layer
100
AcDbEntity
  6
Continuous
100
AcDbLine
 10
9.32157874928352
 20
1.116125841149813
 30
0.0
 11
9.38397874928352
 21
1.1785258411498127
 31
0.0
  0
LINE
  5
111addf1
330
1F
  8
Layer
100
AcDbEntity
  6
Continuous
100
AcDbLine
 10
9.38397874928352
 20
1.1785258411498127
 30
0.0
 11
9.393799676799999
 21
1.168704913633333
 31
0.0
  0
LINE
  5
78d1672c
330
1F
  8
Layer
100
AcDbEntity
  6
Continuous
100
AcDbLine
 10
9.482188024400001
 20
1.168704913633333
 30
0.0
 11
9.49200895191648
 21
1.1588839861168532
 31
0.0
  0
LINE
  5
00ae7194
330
1F
  8
Layer
100
AcDbEntity
  6
Continuous
100
AcDbLine
 10
9.49200895191648
 20
1.1588839861168532
 30
0.0
 11
9.42960895191648
 21
1.0964839861168534
 31
0.0
  0
LINE
  5
019017d9
330
1F
  8
Layer
100
AcDbEntity
  6
Continuous
100
AcDbLine
 10
9.42960895191648
 20
1.0964839861168534
 30
0.0
 11
9.409967096883522
 21
1.116125841149813
 31
0.0
  0
LINE
  5
85da5de3
330
1F
  8
Layer
100
AcDbEntity
  6
Continuous
100
AcDbLine
 10
9.409967096883522
 20
1.116125841149813
 30
0.0
 11
9.472367096883522
 21
1.1785258411498127
 31
0.0
  0
LINE
  5
1c827b6e
330
1F
  8
Layer
100
AcDbEntity
  6
Continuous
100
AcDbLine
 10
9.472367096883522
 20
1.1785258411498127
 30
0.0
 11
9.482188024400001
 21
1.168704913633333
 31
0.0
  0
LINE
  5
f9a6500b
330
1F
  8
Layer
100
AcDbEntity
  6
Continuous
100
AcDbLine
 10
9.570576372099998
 20
1.168704913633333
 30
0.0
 11
9.580397299616477
 21
1.1588839861168532
 31
0.0
  0
LINE
  5
bc57d8a1
330
1F
  8
Layer
100
AcDbEntity
  6
Continuous
100
AcDbLine
 10
9.580397299616477
 20
1.1588839861168532
 30
0.0
 11
9.517997299616479
 21
1.0964839861168534
 31
0.0
  0
LINE
  5
49ca5005
330
1F
  8
Layer
100
AcDbEntity
  6
Continuous
100
AcDbLine
 10
9.517997299616479
 20
1.0964839861168534
 30
0.0
 11
9.49835544458352
 21
1.116125841149813
 31
0.0
  0
LINE
  5
2169b864
330
1F
  8
Layer
100
AcDbEntity
  6
Continuous
100
AcDbLine
 10
9.49835544458352
 20
1.116125841149813
 30
0.0
 11
9.560755444583519
 21
1.1785258411498127
 31
0.0
  0
LINE
  5
0d26335e
330
1F
  8
Layer
100
AcDbEntity
  6
Continuous
100
AcDbLine
 10
9.560755444583519
 20
1.1785258411498127
 30
0.0
 11
9.570576372099998
 21
1.168704913633333
 31
0.0
  0
LINE
  5
6270d480
330
1F
  8
Layer
100
AcDbEntity
  6
Continuous
100
AcDbLine
 10
9.6589647197
 20
1.168704913633333
 30
0.0
 11
9.66878564721648
 21
1.1588839861168532
 31
0.0
  0
LINE
  5
f509db19
330
1F
  8
Layer
100
AcDbEntity
  6
Continuous
100
AcDbLine
 10
9.66878564721648
 20
1.1588839861168532
 30
0.0
 11
9.606385647216479
 21
1.0964839861168534
 31
0.0
  0
LINE
  5
c2e322f3
330
1F
  8
Layer
100
AcDbEntity
  6
Continuous
100
AcDbLine
 10
9.606385647216479
 20
1.0964839861168534
 30
0.0
 11
9.58674379218352
 21
1.116125841149813
 31
0.0
  0
LINE
  5
c6fad188
330
1F
  8
Layer
100
AcDbEntity
  6
Continuous
100
AcDbLine
 10
9.58674379218352
 20
1.116125841149813
 30
0.0
 11
9.649143792183521
 21
1.1785258411498127
 31
0.0
  0
LINE
  5
a76d1623
330
1F
  8
Layer
100
AcDbEntity
  6
Continuous
100
AcDbLine
 10
9.649143792183521
 20
1.1785258411498127
 30
0.0
 11
9.6589647197
 21
1.168704913633333
 31
0.0
  0
LINE
  5
585f2e45
330
1F
  8
Layer
100
AcDbEntity
  6
Continuous
100
AcDbLine
 10
9.7473530674
 20
1.168704913633333
 30
0.0
 11
9.75717399491648
 21
1.1588839861168532
 31
0.0
  0
LINE
  5
9f3dbab4
330
1F
  8
Layer
100
AcDbEntity
  6
Continuous
100
AcDbLine
 10
9.75717399491648
 20
1.1588839861168532
 30
0.0
 11
9.69477399491648
 21
1.0964839861168534
 31
0.0
  0
LINE
  5
f3b40752
330
1F
  8
Layer
100
AcDbEntity
  6
Continuous
100
AcDbLine
 10
9.69477399491648
 20
1.0964839861168534
 30
0.0
 11
9.675132139883521
 21
1.116125841149813
 31
0.0
  0
LINE
  5
e13a67ce
330
1F
  8
Layer
100
AcDbEntity
  6
Continuous
100
AcDbLine
 10
9.675132139883521
 20
1.116125841149813
 30
0.0
 11
9.737532139883522
 21
1.1785258411498127
 31
0.0
  0
LINE
  5
f36521be
330
1F
  8
Layer
100
AcDbEntity
  6
Continuous
100
AcDbLine
 10
9.737532139883522
 20
1.1785258411498127
 30
0.0
 11
9.7473530674
 21
1.168704913633333
 31
0.0
  0
LINE
  5
f70b53e1
330
1F
  8
Layer
100
AcDbEntity
  6
Continuous
100
AcDbLine
 10
9.835741415
 20
1.168704913633333
 30
0.0
 11
9.845562342516478
 21
1.1588839861168532
 31
0.0
  0
LINE
  5
641027eb
330
1F
  8
Layer
100
AcDbEntity
  6
Continuous
100
AcDbLine
 10
9.845562342516478
 20
1.1588839861168532
 30
0.0
 11
9.783162342516478
 21
1.0964839861168534
 31
0.0
  0
LINE
  5
2b14ffc6
330
1F
  8
Layer
100
AcDbEntity
  6
Continuous
100
AcDbLine
 10
9.783162342516478
 20
1.0964839861168534
 30
0.0
 11
9.76352048748352
 21
1.116125841149813
 31
0.0
  0
LINE
  5
0de75288
330
1F
  8
Layer
100
AcDbEntity
  6
Continuous
100
AcDbLine
 10
9.76352048748352
 20
1.116125841149813
 30
0.0
 11
9.82592048748352
 21
1.1785258411498127
 31
0.0
  0
LINE
  5
5def42f2
330
1F
  8
Layer
100
AcDbEntity
  6
Continuous
100
AcDbLine
 10
9.82592048748352
 20
1.1785258411498127
 30
0.0
 11
9.835741415
 21
1.168704913633333
 31
0.0
  0
LINE
  5
98ae9d53
330
1F
  8
Layer
100
AcDbEntity
  6
Continuous
100
AcDbLine
 10
9.9241297627
 20
1.168704913633333
 30
0.0
 11
9.933950690216479
 21
1.1588839861168532
 31
0.0
  0
LINE
  5
bfe5aa6e
330
1F
  8
Layer
100
AcDbEntity
  6
Continuous
100
AcDbLine
 10
9.933950690216479
 20
1.1588839861168532
 30
0.0
 11
9.871550690216479
 21
1.0964839861168534
 31
0.0
  0
LINE
  5
4775299b
330
1F
  8
Layer
100
AcDbEntity
  6
Continuous
100
AcDbLine
 10
9.871550690216479
 20
1.0964839861168534
 30
0.0
 11
9.85190883518352
 21
1.116125841149813
 31
0.0
  0
LINE
  5
b7e83cd0
330
1F
  8
Layer
100
AcDbEntity
  6
Continuous
100
AcDbLine
 10
9.85190883518352
 20
1.116125841149813
 30
0.0
 11
9.91430883518352
 21
1.1785258411498127
 31
0.0
  0
LINE
  5
c5dd6f76
330
1F
  8
Layer
100
AcDbEntity
  6
Continuous
100
AcDbLine
 10
9.91430883518352
 20
1.1785258411498127
 30
0.0
 11
9.9241297627
 21
1.168704913633333
 31
0.0
  0
LINE
  5
4c6d2ea3
330
1F
  8
Layer
100
AcDbEntity
  6
Continuous
100
AcDbLine
 10
10.012518110299998
 20
1.168704913633333
 30
0.0
 11
10.022339037816478
 21
1.1588839861168532
 31
0.0
  0
LINE
  5
1e9989ee
330
1F
  8
Layer
100
AcDbEntity
  6
Continuous
100
AcDbLine
 10
10.022339037816478
 20
1.1588839861168532
 30
0.0
 11
9.959939037816477
 21
1.0964839861168534
 31
0.0
  0
LINE
  5
f40365ee
330
1F
  8
Layer
100
AcDbEntity
  6
Continuous
100
AcDbLine
 10
9.959939037816477
 20
1.0964839861168534
 30
0.0
 11
9.94029718278352
 21
1.116125841149813
 31
0.0
  0
LINE
  5
5e9e9000
330
1F
  8
Layer
100
AcDbEntity
  6
Continuous
100
AcDbLine
 10
9.94029718278352
 20
1.116125841149813
 30
0.0
 11
10.00269718278352
 21
1.1785258411498127
 31
0.0
  0
LINE
  5
27e636f6
330
1F
  8
Layer
100
AcDbEntity
  6
Continuous
100
AcDbLine
 10
10.00269718278352
 20
1.1785258411498127
 30
0.0
 11
10.012518110299998
 21
1.168704913633333
 31
0.0
  0
LINE
  5
bbb0bd2a
330
1F
  8
Layer
100
AcDbEntity
  6
Continuous
100
AcDbLine
 10
10.100906457999999
 20
1.168704913633333
 30
0.0
 11
10.110727385516478
 21
1.1588839861168532
 31
0.0
  0
LINE
  5
cfaf2cda
330
1F
  8
Layer
100
AcDbEntity
  6
Continuous
100
AcDbLine
 10
10.110727385516478
 20
1.1588839861168532
 30
0.0
 11
10.048327385516478
 21
1.0964839861168534
 31
0.0
  0
LINE
  5
561fa24c
330
1F
  8
Layer
100
AcDbEntity
  6
Continuous
100
AcDbLine
 10
10.048327385516478
 20
1.0964839861168534
 30
0.0
 11
10.02868553048352
 21
1.116125841149813
 31
0.0
  0
LINE
  5
cadf9bc3
330
1F
  8
Layer
100
AcDbEntity
  6
Continuous
100
AcDbLine
 10
10.02868553048352
 20
1.116125841149813
 30
0.0
 11
10.09108553048352
 21
1.1785258411498127
 31
0.0
  0
LINE
  5
d9b22f43
330
1F
  8
Layer
100
AcDbEntity
  6
Continuous
100
AcDbLine
 10
10.09108553048352
 20
1.1785258411498127
 30
0.0
 11
10.100906457999999
 21
1.168704913633333
 31
0.0
  0
LINE
  5
dfa69835
330
1F
  8
Layer
100
AcDbEntity
  6
Continuous
100
AcDbLine
 10
10.189294805600001
 20
1.168704913633333
 30
0.0
 11
10.19911573311648
 21
1.1588839861168532
 31
0.0
  0
LINE
  5
59d9f26b
330
1F
  8
Layer
100
AcDbEntity
  6
Continuous
100
AcDbLine
 10
10.19911573311648
 20
1.1588839861168532
 30
0.0
 11
10.13671573311648
 21
1.0964839861168534
 31
0.0
  0
LINE
  5
3f0d15c1
330
1F
  8
Layer
100
AcDbEntity
  6
Continuous
100
AcDbLine
 10
10.13671573311648
 20
1.0964839861168534
 30
0.0
 11
10.117073878083522
 21
1.116125841149813
 31
0.0
  0
LINE
  5
c1178fc9
330
1F
  8
Layer
100
AcDbEntity
  6
Continuous
100
AcDbLine
 10
10.117073878083522
 20
1.116125841149813
 30
0.0
 11
10.179473878083522
 21
1.1785258411498127
 31
0.0
  0
LINE
  5
6ebf1e57
330
1F
  8
Layer
100
AcDbEntity
  6
Continuous
100
AcDbLine
 10
10.179473878083522
 20
1.1785258411498127
 30
0.0
 11
10.189294805600001
 21
1.168704913633333
 31
0.0
  0
LINE
  5
fbaa33d0
330
1F
  8
Layer
100
AcDbEntity
  6
Continuous
100
AcDbLine
 10
10.277683153299998
 20
1.168704913633333
 30
0.0
 11
10.287504080816477
 21
1.1588839861168532
 31
0.0
  0
LINE
  5
321d493a
330
1F
  8
Layer
100
AcDbEntity
  6
Continuous
100
AcDbLine
 10
10.287504080816477
 20
1.1588839861168532
 30
0.0
 11
10.225104080816477
 21
1.0964839861168534
 31
0.0
  0
LINE
  5
5250ff74
330
1F
  8
Layer
100
AcDbEntity
  6
Continuous
100
AcDbLine
 10
10.225104080816477
 20
1.0964839861168534
 30
0.0
 11
10.205462225783519
 21
1.116125841149813
 31
0.0
  0
LINE
  5
c5c37b19
330
1F
  8
Layer
100
AcDbEntity
  6
Continuous
100
AcDbLine
 10
10.205462225783519
 20
1.116125841149813
 30
0.0
 11
10.267862225783519
 21
1.1785258411498127
 31
0.0
  0
LINE
  5
14405b0b
330
1F
  8
Layer
100
AcDbEntity
  6
Continuous
100
AcDbLine
 10
10.267862225783519
 20
1.1785258411498127
 30
0.0
 11
10.277683153299998
 21
1.168704913633333
 31
0.0
  0
LINE
  5
3cc19058
330
1F
  8
Layer
100
AcDbEntity
  6
Continuous
100
AcDbLine
 10
10.3660715009
 20
1.168704913633333
 30
0.0
 11
10.37589242841648
 21
1.1588839861168532
 31
0.0
  0
LINE
  5
dcddc318
330
1F
  8
Layer
100
AcDbEntity
  6
Continuous
100
AcDbLine
 10
10.37589242841648
 20
1.1588839861168532
 30
0.0
 11
10.31349242841648
 21
1.0964839861168534
 31
0.0
  0
LINE
  5
25aa1a62
330
1F
  8
Layer
100
AcDbEntity
  6
Continuous
100
AcDbLine
 10
10.31349242841648
 20
1.0964839861168534
 30
0.0
 11
10.293850573383521
 21
1.116125841149813
 31
0.0
  0
LINE
  5
a25d817f
330
1F
  8
Layer
100
AcDbEntity
  6
Continuous
100
AcDbLine
 10
10.293850573383521
 20
1.116125841149813
 30
0.0
 11
10.356250573383521
 21
1.1785258411498127
 31
0.0
  0
LINE
  5
c3f4d7e4
330
1F
  8
Layer
100
AcDbEntity
  6
Continuous
100
AcDbLine
 10
10.356250573383521
 20
1.1785258411498127
 30
0.0
 11
10.3660715009
 21
1.168704913633333
 31
0.0
  0
LINE
  5
2aa0642c
330
1F
  8
Layer
100
AcDbEntity
  6
Continuous
100
AcDbLine
 10
10.4544598486
 20
1.168704913633333
 30
0.0
 11
10.46428077611648
 21
1.1588839861168532
 31
0.0
  0
LINE
  5
ebbfa69a
330
1F
  8
Layer
100
AcDbEntity
  6
Continuous
100
AcDbLine
 10
10.46428077611648
 20
1.1588839861168532
 30
0.0
 11
10.40188077611648
 21
1.0964839861168534
 31
0.0
  0
LINE
  5
200fe207
330
1F
  8
Layer
100
AcDbEntity
  6
Continuous
100
AcDbLine
 10
10.40188077611648
 20
1.0964839861168534
 30
0.0
 11
10.382238921083522
 21
1.116125841149813
 31
0.0
  0
LINE
  5
b4d45d1b
330
1F
  8
Layer
100
AcDbEntity
  6
Continuous
100
AcDbLine
 10
10.382238921083522
 20
1.116125841149813
 30
0.0
 11
10.444638921083522
 21
1.1785258411498127
 31
0.0
  0
LINE
  5
12d376b7
330
1F
  8
Layer
100
AcDbEntity
  6
Continuous
100
AcDbLine
 10
10.444638921083522
 20
1.1785258411498127
 30
0.0
 11
10.4544598486
 21
1.168704913633333
 31
0.0
  0
LINE
  5
9e81496d
330
1F
  8
Layer
100
AcDbEntity
  6
Continuous
100
AcDbLine
 10
10.5428481962
 20
1.168704913633333
 30
0.0
 11
10.552669123716479
 21
1.1588839861168532
 31
0.0
  0
LINE
  5
94b83557
330
1F
  8
Layer
100
AcDbEntity
  6
Continuous
100
AcDbLine
 10
10.552669123716479
 20
1.1588839861168532
 30
0.0
 11
10.490269123716478
 21
1.0964839861168534
 31
0.0
  0
LINE
  5
344a544b
330
1F
  8
Layer
100
AcDbEntity
  6
Continuous
100
AcDbLine
 10
10.490269123716478
 20
1.0964839861168534
 30
0.0
 11
10.47062726868352
 21
1.116125841149813
 31
0.0
  0
LINE
  5
b785efd5
330
1F
  8
Layer
100
AcDbEntity
  6
Continuous
100
AcDbLine
 10
10.47062726868352
 20
1.116125841149813
 30
0.0
 11
10.53302726868352
 21
1.1785258411498127
 31
0.0
  0
LINE
  5
077b6b53
330
1F
  8
Layer
100
AcDbEntity
  6
Continuous
100
AcDbLine
 10
10.53302726868352
 20
1.1785258411498127
 30
0.0
 11
10.5428481962
 21
1.168704913633333
 31
0.0
  0
LINE
  5
48d7cdeb
330
1F
  8
Layer
100
AcDbEntity
  6
Continuous
100
AcDbLine
 10
10.6312365439
 20
1.168704913633333
 30
0.0
 11
10.64105747141648
 21
1.1588839861168532
 31
0.0
  0
LINE
  5
ba2a989a
330
1F
  8
Layer
100
AcDbEntity
  6
Continuous
100
AcDbLine
 10
10.64105747141648
 20
1.1588839861168532
 30
0.0
 11
10.578657471416479
 21
1.0964839861168534
 31
0.0
  0
LINE
  5
7693d388
330
1F
  8
Layer
100
AcDbEntity
  6
Continuous
100
AcDbLine
 10
10.578657471416479
 20
1.0964839861168534
 30
0.0
 11
10.55901561638352
 21
1.116125841149813
 31
0.0
  0
LINE
  5
d95f2e9d
330
1F
  8
Layer
100
AcDbEntity
  6
Continuous
100
AcDbLine
 10
10.55901561638352
 20
1.116125841149813
 30
0.0
 11
10.621415616383521
 21
1.1785258411498127
 31
0.0
  0
LINE
  5
cf9e451f
330
1F
  8
Layer
100
AcDbEntity
  6
Continuous
100
AcDbLine
 10
10.621415616383521
 20
1.1785258411498127
 30
0.0
 11
10.6312365439
 21
1.168704913633333
 31
0.0
  0
LINE
  5
439e0888
330
1F
  8
Layer
100
AcDbEntity
  6
Continuous
100
AcDbLine
 10
10.719624891499999
 20
1.168704913633333
 30
0.0
 11
10.729445819016478
 21
1.1588839861168532
 31
0.0
  0
LINE
  5
056129d5
330
1F
  8
Layer
100
AcDbEntity
  6
Continuous
100
AcDbLine
 10
10.729445819016478
 20
1.1588839861168532
 30
0.0
 11
10.667045819016478
 21
1.0964839861168534
 31
0.0
  0
LINE
  5
a042d109
330
1F
  8
Layer
100
AcDbEntity
  6
Continuous
100
AcDbLine
 10
10.667045819016478
 20
1.0964839861168534
 30
0.0
 11
10.64740396398352
 21
1.116125841149813
 31
0.0
  0
LINE
  5
09843336
330
1F
  8
Layer
100
AcDbEntity
  6
Continuous
100
AcDbLine
 10
10.64740396398352
 20
1.116125841149813
 30
0.0
 11
10.70980396398352
 21
1.1785258411498127
 31
0.0
  0
LINE
  5
2a124422
330
1F
  8
Layer
100
AcDbEntity
  6
Continuous
100
AcDbLine
 10
10.70980396398352
 20
1.1785258411498127
 30
0.0
 11
10.719624891499999
 21
1.168704913633333
 31
0.0
  0
LINE
  5
e7f9bdc7
330
1F
  8
Layer
100
AcDbEntity
  6
Continuous
100
AcDbLine
 10
10.8080132392
 20
1.168704913633333
 30
0.0
 11
10.817834166716478
 21
1.1588839861168532
 31
0.0
  0
LINE
  5
61c041ca
330
1F
  8
Layer
100
AcDbEntity
  6
Continuous
100
AcDbLine
 10
10.817834166716478
 20
1.1588839861168532
 30
0.0
 11
10.755434166716478
 21
1.0964839861168534
 31
0.0
  0
LINE
  5
8736172f
330
1F
  8
Layer
100
AcDbEntity
  6
Continuous
100
AcDbLine
 10
10.755434166716478
 20
1.0964839861168534
 30
0.0
 11
10.73579231168352
 21
1.116125841149813
 31
0.0
  0
LINE
  5
208b9bd2
330
1F
  8
Layer
100
AcDbEntity
  6
Continuous
100
AcDbLine
 10
10.73579231168352
 20
1.116125841149813
 30
0.0
 11
10.79819231168352
 21
1.1785258411498127
 31
0.0
  0
LINE
  5
d9eb60d4
330
1F
  8
Layer
100
AcDbEntity
  6
Continuous
100
AcDbLine
 10
10.79819231168352
 20
1.1785258411498127
 30
0.0
 11
10.8080132392
 21
1.168704913633333
 31
0.0
  0
LINE
  5
4d2d917b
330
1F
  8
Layer
100
AcDbEntity
  6
Continuous
100
AcDbLine
 10
10.896401586799998
 20
1.168704913633333
 30
0.0
 11
10.906222514316479
 21
1.1588839861168534
 31
0.0
  0
LINE
  5
08cd0654
330
1F
  8
Layer
100
AcDbEntity
  6
Continuous
100
AcDbLine
 10
10.906222514316479
 20
1.1588839861168534
 30
0.0
 11
10.843822514316482
 21
1.0964839861168536
 31
0.0
  0
LINE
  5
46957703
330
1F
  8
Layer
100
AcDbEntity
  6
Continuous
100
AcDbLine
 10
10.843822514316482
 20
1.0964839861168536
 30
0.0
 11
10.82418065928352
 21
1.1161258411498127
 31
0.0
  0
LINE
  5
efa846cd
330
1F
  8
Layer
100
AcDbEntity
  6
Continuous
100
AcDbLine
 10
10.82418065928352
 20
1.1161258411498127
 30
0.0
 11
10.886580659283517
 21
1.1785258411498125
 31
0.0
  0
LINE
  5
732d3e79
330
1F
  8
Layer
100
AcDbEntity
  6
Continuous
100
AcDbLine
 10
10.886580659283517
 20
1.1785258411498125
 30
0.0
 11
10.896401586799998
 21
1.168704913633333
 31
0.0
  0
LINE
  5
2fe4ee31
330
1F
  8
Layer
100
AcDbEntity
  6
Continuous
100
AcDbLine
 10
10.984789934499998
 20
1.168704913633333
 30
0.0
 11
10.994610862016478
 21
1.1588839861168532
 31
0.0
  0
LINE
  5
8cea50f5
330
1F
  8
Layer
100
AcDbEntity
  6
Continuous
100
AcDbLine
 10
10.994610862016478
 20
1.1588839861168532
 30
0.0
 11
10.932210862016477
 21
1.0964839861168534
 31
0.0
  0
LINE
  5
7ec92dbe
330
1F
  8
Layer
100
AcDbEntity
  6
Continuous
100
AcDbLine
 10
10.932210862016477
 20
1.0964839861168534
 30
0.0
 11
10.912569006983519
 21
1.116125841149813
 31
0.0
  0
LINE
  5
8dda74e3
330
1F
  8
Layer
100
AcDbEntity
  6
Continuous
100
AcDbLine
 10
10.912569006983519
 20
1.116125841149813
 30
0.0
 11
10.97496900698352
 21
1.1785258411498127
 31
0.0
  0
LINE
  5
ef3a88dc
330
1F
  8
Layer
100
AcDbEntity
  6
Continuous
100
AcDbLine
 10
10.97496900698352
 20
1.1785258411498127
 30
0.0
 11
10.984789934499998
 21
1.168704913633333
 31
0.0
  0
LINE
  5
b565f95d
330
1F
  8
Layer
100
AcDbEntity
  6
Continuous
100
AcDbLine
 10
11.0731782821
 20
1.168704913633333
 30
0.0
 11
11.08299920961648
 21
1.1588839861168532
 31
0.0
  0
LINE
  5
e2e04820
330
1F
  8
Layer
100
AcDbEntity
  6
Continuous
100
AcDbLine
 10
11.08299920961648
 20
1.1588839861168532
 30
0.0
 11
11.02059920961648
 21
1.0964839861168534
 31
0.0
  0
LINE
  5
26a69532
330
1F
  8
Layer
100
AcDbEntity
  6
Continuous
100
AcDbLine
 10
11.02059920961648
 20
1.0964839861168534
 30
0.0
 11
11.000957354583521
 21
1.116125841149813
 31
0.0
  0
LINE
  5
f174ed78
330
1F
  8
Layer
100
AcDbEntity
  6
Continuous
100
AcDbLine
 10
11.000957354583521
 20
1.116125841149813
 30
0.0
 11
11.063357354583522
 21
1.1785258411498127
 31
0.0
  0
LINE
  5
5f4dd281
330
1F
  8
Layer
100
AcDbEntity
  6
Continuous
100
AcDbLine
 10
11.063357354583522
 20
1.1785258411498127
 30
0.0
 11
11.0731782821
 21
1.168704913633333
 31
0.0
  0
CIRCLE
  5
a84ebab0
330
1F
  8
Layer
100
AcDbEntity
  6
CONTINUOUS
100
AcDbCircle
 10
1.7353736409999998
 20
10.967957879233333
 30
0.0
 40
0.0685000000000002
  0
CIRCLE
  5
126318e5
330
1F
  8
Layer
100
AcDbEntity
  6
CONTINUOUS
100
AcDbCircle
 10
9.735373640999999
 20
10.067957879233333
 30
0.0
 40
0.0684999999999967
  0
CIRCLE
  5
686a8e92
330
1F
  8
Layer
100
AcDbEntity
  6
CONTINUOUS
100
AcDbCircle
 10
7.935373641
 20
10.067957879233333
 30
0.0
 40
0.068500000000002
  0
CIRCLE
  5
a3bb7de2
330
1F
  8
Layer
100
AcDbEntity
  6
CONTINUOUS
100
AcDbCircle
 10
10.535373641
 20
16.167957879233334
 30
0.0
 40
0.0684999999999985
  0
CIRCLE
  5
f588928e
330
1F
  8
Layer
100
AcDbEntity
  6
CONTINUOUS
100
AcDbCircle
 10
9.735373640999999
 20
16.167957879233334
 30
0.0
 40
0.0684999999999967
  0
CIRCLE
  5
65ddfe6f
330
1F
  8
Layer
100
AcDbEntity
  6
CONTINUOUS
100
AcDbCircle
 10
7.935373641
 20
16.167957879233334
 30
0.0
 40
0.0684999999999985
  0
CIRCLE
  5
c00ff264
330
1F
  8
Layer
100
AcDbEntity
  6
CONTINUOUS
100
AcDbCircle
 10
7.935373641
 20
19.017957879233332
 30
0.0
 40
0.0684999999999985
  0
CIRCLE
  5
741be650
330
1F
  8
Layer
100
AcDbEntity
  6
CONTINUOUS
100
AcDbCircle
 10
1.7353736409999998
 20
19.017957879233332
 30
0.0
 40
0.0685000000000002
  0
CIRCLE
  5
3f3d187c
330
1F
  8
Layer
100
AcDbEntity
  6
CONTINUOUS
100
AcDbCircle
 10
1.7353736409999998
 20
10.967957879233333
 30
0.0
 40
0.0750000000000002
  0
CIRCLE
  5
c02b839f
330
1F
  8
Layer
100
AcDbEntity
  6
CONTINUOUS
100
AcDbCircle
 10
9.735373640999999
 20
10.067957879233333
 30
0.0
 40
0.0749999999999975
  0
CIRCLE
  5
ffdbd0e9
330
1F
  8
Layer
100
AcDbEntity
  6
CONTINUOUS
100
AcDbCircle
 10
7.935373641
 20
10.067957879233333
 30
0.0
 40
0.0750000000000011
  0
CIRCLE
  5
ed105973
330
1F
  8
Layer
100
AcDbEntity
  6
CONTINUOUS
100
AcDbCircle
 10
10.535373641
 20
16.167957879233334
 30
0.0
 40
0.0750000000000011
  0
CIRCLE
  5
d078e9d8
330
1F
  8
Layer
100
AcDbEntity
  6
CONTINUOUS
100
AcDbCircle
 10
9.735373640999999
 20
16.167957879233334
 30
0.0
 40
0.0749999999999975
  0
CIRCLE
  5
6bddda60
330
1F
  8
Layer
100
AcDbEntity
  6
CONTINUOUS
100
AcDbCircle
 10
7.935373641
 20
16.167957879233334
 30
0.0
 40
0.0749999999999975
  0
CIRCLE
  5
fd1c02dd
330
1F
  8
Layer
100
AcDbEntity
  6
CONTINUOUS
100
AcDbCircle
 10
7.935373641
 20
19.017957879233332
 30
0.0
 40
0.0749999999999975
  0
CIRCLE
  5
b6a6f43e
330
1F
  8
Layer
100
AcDbEntity
  6
CONTINUOUS
100
AcDbCircle
 10
1.7353736409999998
 20
19.017957879233332
 30
0.0
 40
0.0749999999999993
  0
CIRCLE
  5
146ecc0d
330
1F
  8
Layer
100
AcDbEntity
  6
CONTINUOUS
100
AcDbCircle
 10
1.7353736409999998
 20
16.167957879233334
 30
0.0
 40
0.0749999999999993
  0
CIRCLE
  5
38131fb4
330
1F
  8
Layer
100
AcDbEntity
  6
CONTINUOUS
100
AcDbCircle
 10
1.7353736409999998
 20
16.167957879233334
 30
0.0
 40
0.0685000000000002
  0
CIRCLE
  5
3ba51fb3
330
1F
  8
Layer
100
AcDbEntity
  6
CONTINUOUS
100
AcDbCircle
 10
10.2001728535
 20
9.422957879233334
 30
0.0
 40
0.053250000000002
  0
CIRCLE
  5
b407350b
330
1F
  8
Layer
100
AcDbEntity
  6
CONTINUOUS
100
AcDbCircle
 10
9.400172853499999
 20
9.422957879233334
 30
0.0
 40
0.053250000000002
  0
CIRCLE
  5
43296db9
330
1F
  8
Layer
100
AcDbEntity
  6
CONTINUOUS
100
AcDbCircle
 10
8.6001728535
 20
9.422957879233334
 30
0.0
 40
0.0532500000000091
  0
CIRCLE
  5
05e4ff59
330
1F
  8
Layer
100
AcDbEntity
  6
CONTINUOUS
100
AcDbCircle
 10
7.8001728534999994
 20
9.422957879233334
 30
0.0
 40
0.0532500000000091
  0
ENDSEC
  0
SECTION
  2
OBJECTS
  0
DICTIONARY
  5
C
330
0
100
AcDbDictionary
  3
ACAD_GROUP
350
D
  3
ACAD_LAYOUT
350
1A
  3
ACAD_MLINESTYLE
350
17
  3
ACAD_PLOTSETTINGS
350
19
1001
ACAD
1000
TREAT_AS_HARD
1070
     0
  0
DICTIONARY
  5
D
102
{ACAD_REACTORS
330
C
102
}
330
C
100
AcDbDictionary
1001
ACAD
1000
TREAT_AS_HARD
1070
     0
  0
DICTIONARY
  5
1A
102
{ACAD_REACTORS
330
C
102
}
330
C
100
AcDbDictionary
1001
ACAD
1000
TREAT_AS_HARD
1070
     0
  0
DICTIONARY
  5
17
102
{ACAD_REACTORS
330
C
102
}
330
C
100
AcDbDictionary
  3
STANDARD
350
18
1001
ACAD
1000
TREAT_AS_HARD
1070
     0
  0
DICTIONARY
  5
19
102
{ACAD_REACTORS
330
C
102
}
330
C
100
AcDbDictionary
1001
ACAD
1000
TREAT_AS_HARD
1070
     0
  0
MLINESTYLE
  5
18
102
{ACAD_REACTORS
330
17
102
}
330
17
100
AcDbMlineStyle
  2
Standard
 70
     0
  3

 62
   256
 51
90.0
 52
90.0
 71
     2
 49
0.5
 62
   256
  6
BYLAYER
 49
-0.5
 62
   256
  6
BYLAYER
  0
ENDSEC
  0
EOF
