  0
SECTION
  2
HEADER
  9
$ACADVER
  1
AC1014
  9
$ACADMAINTVER
 70
     9
  9
$DWGCODEPAGE
  3
ANSI_1252
  9
$INSBASE
 10
0.0
 20
0.0
 30
0.0
  9
$EXTMIN
 10
309.4625915656845
 20
-92.94256755255901
 30
0.0
  9
$EXTMAX
 10
342.0166456177151
 20
106.7222972998943
 30
0.0
  9
$LIMMIN
 10
0.0
 20
0.0
  9
$LIMMAX
 10
420.0
 20
297.0
  9
$ORTHOMODE
 70
     0
  9
$REGENMODE
 70
     1
  9
$FILLMODE
 70
     1
  9
$QTEXTMODE
 70
     0
  9
$MIRRTEXT
 70
     1
  9
$DRAGMODE
 70
     2
  9
$LTSCALE
 40
1.0
  9
$OSMODE
 70
   511
  9
$ATTMODE
 70
     1
  9
$TEXTSIZE
 40
2.5
  9
$TRACEWID
 40
1.0
  9
$TEXTSTYLE
  7
STANDARD
  9
$CLAYER
  8
0
  9
$CELTYPE
  6
BYLAYER
  9
$CECOLOR
 62
   256
  9
$CELTSCALE
 40
1.0
  9
$DELOBJ
 70
     1
  9
$DISPSILH
 70
     0
  9
$DIMSCALE
 40
1.0
  9
$DIMASZ
 40
2.5
  9
$DIMEXO
 40
0.625
  9
$DIMDLI
 40
3.75
  9
$DIMRND
 40
0.0
  9
$DIMDLE
 40
0.0
  9
$DIMEXE
 40
1.25
  9
$DIMTP
 40
0.0
  9
$DIMTM
 40
0.0
  9
$DIMTXT
 40
2.5
  9
$DIMCEN
 40
2.5
  9
$DIMTSZ
 40
0.0
  9
$DIMTOL
 70
     0
  9
$DIMLIM
 70
     0
  9
$DIMTIH
 70
     0
  9
$DIMTOH
 70
     0
  9
$DIMSE1
 70
     0
  9
$DIMSE2
 70
     0
  9
$DIMTAD
 70
     1
  9
$DIMZIN
 70
     8
  9
$DIMBLK
  1

  9
$DIMASO
 70
     1
  9
$DIMSHO
 70
     1
  9
$DIMPOST
  1

  9
$DIMAPOST
  1

  9
$DIMALT
 70
     0
  9
$DIMALTD
 70
     3
  9
$DIMALTF
 40
0.03937007874016
  9
$DIMLFAC
 40
1.0
  9
$DIMTOFL
 70
     1
  9
$DIMTVP
 40
0.0
  9
$DIMTIX
 70
     0
  9
$DIMSOXD
 70
     0
  9
$DIMSAH
 70
     0
  9
$DIMBLK1
  1

  9
$DIMBLK2
  1

  9
$DIMSTYLE
  2
ISO-25
  9
$DIMCLRD
 70
     0
  9
$DIMCLRE
 70
     0
  9
$DIMCLRT
 70
     0
  9
$DIMTFAC
 40
1.0
  9
$DIMGAP
 40
0.625
  9
$DIMJUST
 70
     0
  9
$DIMSD1
 70
     0
  9
$DIMSD2
 70
     0
  9
$DIMTOLJ
 70
     0
  9
$DIMTZIN
 70
     8
  9
$DIMALTZ
 70
     0
  9
$DIMALTTZ
 70
     0
  9
$DIMFIT
 70
     3
  9
$DIMUPT
 70
     0
  9
$DIMUNIT
 70
     2
  9
$DIMDEC
 70
     2
  9
$DIMTDEC
 70
     2
  9
$DIMALTU
 70
     2
  9
$DIMALTTD
 70
     3
  9
$DIMTXSTY
  7
STANDARD
  9
$DIMAUNIT
 70
     0
  9
$LUNITS
 70
     2
  9
$LUPREC
 70
     4
  9
$SKETCHINC
 40
1.0
  9
$FILLETRAD
 40
10.0
  9
$AUNITS
 70
     0
  9
$AUPREC
 70
     0
  9
$MENU
  1
.
  9
$ELEVATION
 40
0.0
  9
$PELEVATION
 40
0.0
  9
$THICKNESS
 40
0.0
  9
$LIMCHECK
 70
     0
  9
$CHAMFERA
 40
10.0
  9
$CHAMFERB
 40
10.0
  9
$CHAMFERC
 40
20.0
  9
$CHAMFERD
 40
0.0
  9
$SKPOLY
 70
     0
  9
$TDCREATE
 40
2456272.282202546
  9
$TDUPDATE
 40
2456272.282782431
  9
$TDINDWG
 40
0.0005788542
  9
$TDUSRTIMER
 40
2456272.44887037
  9
$USRTIMER
 70
     1
  9
$ANGBASE
 50
0.0
  9
$ANGDIR
 70
     0
  9
$PDMODE
 70
     0
  9
$PDSIZE
 40
0.0
  9
$PLINEWID
 40
0.0
  9
$COORDS
 70
     1
  9
$SPLFRAME
 70
     0
  9
$SPLINETYPE
 70
     6
  9
$SPLINESEGS
 70
     8
  9
$ATTDIA
 70
     0
  9
$ATTREQ
 70
     1
  9
$HANDLING
 70
     1
  9
$HANDSEED
  5
45
  9
$SURFTAB1
 70
     6
  9
$SURFTAB2
 70
     6
  9
$SURFTYPE
 70
     6
  9
$SURFU
 70
     6
  9
$SURFV
 70
     6
  9
$UCSNAME
  2

  9
$UCSORG
 10
0.0
 20
0.0
 30
0.0
  9
$UCSXDIR
 10
1.0
 20
0.0
 30
0.0
  9
$UCSYDIR
 10
0.0
 20
1.0
 30
0.0
  9
$PUCSNAME
  2

  9
$PUCSORG
 10
0.0
 20
0.0
 30
0.0
  9
$PUCSXDIR
 10
1.0
 20
0.0
 30
0.0
  9
$PUCSYDIR
 10
0.0
 20
1.0
 30
0.0
  9
$USERI1
 70
     0
  9
$USERI2
 70
     0
  9
$USERI3
 70
     0
  9
$USERI4
 70
     0
  9
$USERI5
 70
     0
  9
$USERR1
 40
0.0
  9
$USERR2
 40
0.0
  9
$USERR3
 40
0.0
  9
$USERR4
 40
0.0
  9
$USERR5
 40
0.0
  9
$WORLDVIEW
 70
     1
  9
$SHADEDGE
 70
     3
  9
$SHADEDIF
 70
    70
  9
$TILEMODE
 70
     1
  9
$MAXACTVP
 70
    64
  9
$PINSBASE
 10
0.0
 20
0.0
 30
0.0
  9
$PLIMCHECK
 70
     0
  9
$PEXTMIN
 10
1.000000000000000E+20
 20
1.000000000000000E+20
 30
1.000000000000000E+20
  9
$PEXTMAX
 10
-1.000000000000000E+20
 20
-1.000000000000000E+20
 30
-1.000000000000000E+20
  9
$PLIMMIN
 10
0.0
 20
0.0
  9
$PLIMMAX
 10
0.0
 20
0.0
  9
$UNITMODE
 70
     0
  9
$VISRETAIN
 70
     1
  9
$PLINEGEN
 70
     0
  9
$PSLTSCALE
 70
     1
  9
$TREEDEPTH
 70
  3020
  9
$PICKSTYLE
 70
     1
  9
$CMLSTYLE
  2
STANDARD
  9
$CMLJUST
 70
     0
  9
$CMLSCALE
 40
20.0
  9
$PROXYGRAPHICS
 70
     1
  9
$MEASUREMENT
 70
     1
  0
ENDSEC
  0
SECTION
  2
CLASSES
  0
CLASS
  1
ACDBDICTIONARYWDFLT
  2
AcDbDictionaryWithDefault
  3
ObjectDBX Classes
 90
        0
280
     0
281
     0
  0
CLASS
  1
VISUALSTYLE
  2
AcDbVisualStyle
  3
ObjectDBX Classes
 90
     4095
280
     0
281
     0
  0
CLASS
  1
MATERIAL
  2
AcDbMaterial
  3
ObjectDBX Classes
 90
     1153
280
     0
281
     0
  0
CLASS
  1
TABLESTYLE
  2
AcDbTableStyle
  3
ObjectDBX Classes
 90
     4095
280
     0
281
     0
  0
CLASS
  1
RASTERVARIABLES
  2
AcDbRasterVariables
  3
ISM
 90
        0
280
     0
281
     0
  0
CLASS
  1
XRECORD
  2
AcDbXrecord
  3
AutoCAD 2000
 90
        0
280
     0
281
     0
  0
CLASS
  1
LWPOLYLINE
  2
AcDbPolyline
  3
AutoCAD 2000
 90
        0
280
     0
281
     1
  0
CLASS
  1
HATCH
  2
AcDbHatch
  3
AutoCAD 2000
 90
        0
280
     0
281
     1
  0
ENDSEC
  0
SECTION
  2
TABLES
  0
TABLE
  2
VPORT
  5
8
330
0
100
AcDbSymbolTable
 70
     1
  0
VPORT
  5
29
330
8
100
AcDbSymbolTableRecord
100
AcDbViewportTableRecord
  2
*ACTIVE
 70
     0
 10
0.0
 20
0.0
 11
1.0
 21
1.0
 12
10
 22
5
 13
0.0
 23
0.0
 14
10.0
 24
10.0
 15
10.0
 25
10.0
 16
0.0
 26
0.0
 36
1.0
 17
0.0
 27
0.0
 37
0.0
 40
20
 41
2
 42
50.0
 43
0.0
 44
0.0
 50
0.0
 51
0.0
 71
     0
 72
   100
 73
     1
 74
     3
 75
     0
 76
     0
 77
     0
 78
     0
  0
ENDTAB
  0
TABLE
  2
LTYPE
  5
5
330
0
100
AcDbSymbolTable
 70
     1
  0
LTYPE
  5
14
330
5
100
AcDbSymbolTableRecord
100
AcDbLinetypeTableRecord
  2
BYBLOCK
 70
     0
  3

 72
    65
 73
     0
 40
0.0
  0
LTYPE
  5
15
330
5
100
AcDbSymbolTableRecord
100
AcDbLinetypeTableRecord
  2
BYLAYER
 70
     0
  3

 72
    65
 73
     0
 40
0.0
  0
LTYPE
  5
16
330
5
100
AcDbSymbolTableRecord
100
AcDbLinetypeTableRecord
  2
CONTINUOUS
 70
     0
  3
Solid line
 72
    65
 73
     0
 40
0.0
  0
ENDTAB
  0
TABLE
  2
LAYER
  5
2
330
0
100
AcDbSymbolTable
 70
     1
  0
LAYER
  5
10
330
2
100
AcDbSymbolTableRecord
100
AcDbLayerTableRecord
  2
0
 70
     0
 62
     7
  6
CONTINUOUS
  0
ENDTAB
  0
TABLE
  2
STYLE
  5
3
330
0
100
AcDbSymbolTable
 70
     1
  0
STYLE
  5
11
330
3
100
AcDbSymbolTableRecord
100
AcDbTextStyleTableRecord
  2
STANDARD
 70
     0
 40
0.0
 41
1.0
 50
0.0
 71
     0
 42
2.5
  3
txt
  4

  0
ENDTAB
  0
TABLE
  2
VIEW
  5
6
330
0
100
AcDbSymbolTable
 70
     0
  0
ENDTAB
  0
TABLE
  2
UCS
  5
7
330
0
100
AcDbSymbolTable
 70
     0
  0
ENDTAB
  0
TABLE
  2
APPID
  5
9
330
0
100
AcDbSymbolTable
 70
     1
  0
APPID
  5
12
330
9
100
AcDbSymbolTableRecord
100
AcDbRegAppTableRecord
  2
ACAD
 70
     0
  0
ENDTAB
  0
TABLE
  2
DIMSTYLE
  5
A
330
0
100
AcDbSymbolTable
 70
     1
  0
DIMSTYLE
105
27
330
A
100
AcDbSymbolTableRecord
100
AcDbDimStyleTableRecord
  2
ISO-25
 70
     0
  3

  4

  5

  6

  7

 40
1.0
 41
2.5
 42
0.625
 43
3.75
 44
1.25
 45
0.0
 46
0.0
 47
0.0
 48
0.0
140
2.5
141
2.5
142
0.0
143
0.03937007874016
144
1.0
145
0.0
146
1.0
147
0.625
 71
     0
 72
     0
 73
     0
 74
     0
 75
     0
 76
     0
 77
     1
 78
     8
170
     0
171
     3
172
     1
173
     0
174
     0
175
     0
176
     0
177
     0
178
     0
270
     2
271
     2
272
     2
273
     2
274
     3
340
11
275
     0
280
     0
281
     0
282
     0
283
     0
284
     8
285
     0
286
     0
287
     3
288
     0
  0
ENDTAB
  0
TABLE
  2
BLOCK_RECORD
  5
1
330
0
100
AcDbSymbolTable
 70
     1
  0
BLOCK_RECORD
  5
1F
330
1
100
AcDbSymbolTableRecord
100
AcDbBlockTableRecord
  2
*MODEL_SPACE
  0
BLOCK_RECORD
  5
1B
330
1
100
AcDbSymbolTableRecord
100
AcDbBlockTableRecord
  2
*PAPER_SPACE
  0
BLOCK_RECORD
  5
23
330
1
100
AcDbSymbolTableRecord
100
AcDbBlockTableRecord
  2
*PAPER_SPACE0
  0
ENDTAB
  0
ENDSEC
  0
SECTION
  2
BLOCKS
  0
BLOCK
  5
20
330
1F
100
AcDbEntity
  8
0
100
AcDbBlockBegin
  2
*MODEL_SPACE
 70
     0
 10
0.0
 20
0.0
 30
0.0
  3
*MODEL_SPACE
  1

  0
ENDBLK
  5
21
330
1F
100
AcDbEntity
  8
0
100
AcDbBlockEnd
  0
BLOCK
  5
1C
330
1B
100
AcDbEntity
 67
     1
  8
0
100
AcDbBlockBegin
  2
*PAPER_SPACE
 70
     0
 10
0.0
 20
0.0
 30
0.0
  3
*PAPER_SPACE
  1

  0
ENDBLK
  5
1D
330
1B
100
AcDbEntity
 67
     1
  8
0
100
AcDbBlockEnd
  0
BLOCK
  5
24
330
23
100
AcDbEntity
  8
0
100
AcDbBlockBegin
  2
*PAPER_SPACE0
 70
     0
 10
0.0
 20
0.0
 30
0.0
  3
*PAPER_SPACE0
  1

  0
ENDBLK
  5
25
330
23
100
AcDbEntity
  8
0
100
AcDbBlockEnd
  0
ENDSEC
  0
SECTION
  2
ENTITIES
  0
LINE
100
AcDbLine
  8
Layer
  6
CONTINUOUS
 10
1.226481
 20
0.873481
 30
0.0
 11
1.326481
 21
0.973481
 31
0.0
  0
LINE
100
AcDbLine
  8
Layer
  6
CONTINUOUS
 10
1.326481
 20
0.973481
 30
0.0
 11
1.026481
 21
1.273481
 31
0.0
  0
LINE
100
AcDbLine
  8
Layer
  6
CONTINUOUS
 10
1.026481
 20
1.273481
 30
0.0
 11
0.926481
 21
1.173481
 31
0.0
  0
LINE
100
AcDbLine
  8
Layer
  6
CONTINUOUS
 10
0.926481
 20
1.173481
 30
0.0
 11
1.226481
 21
0.873481
 31
0.0
  0
LINE
100
AcDbLine
  8
Layer
  6
CONTINUOUS
 10
1.226481
 20
0.473481
 30
0.0
 11
1.326481
 21
0.573481
 31
0.0
  0
LINE
100
AcDbLine
  8
Layer
  6
CONTINUOUS
 10
1.326481
 20
0.573481
 30
0.0
 11
0.626481
 21
1.273481
 31
0.0
  0
LINE
100
AcDbLine
  8
Layer
  6
CONTINUOUS
 10
0.626481
 20
1.273481
 30
0.0
 11
0.526481
 21
1.173481
 31
0.0
  0
LINE
100
AcDbLine
  8
Layer
  6
CONTINUOUS
 10
0.526481
 20
1.173481
 30
0.0
 11
1.226481
 21
0.473481
 31
0.0
  0
LINE
100
AcDbLine
  8
Layer
  6
CONTINUOUS
 10
1.226481
 20
0.073481
 30
0.0
 11
1.326481
 21
0.173481
 31
0.0
  0
LINE
100
AcDbLine
  8
Layer
  6
CONTINUOUS
 10
1.326481
 20
0.173481
 30
0.0
 11
0.226481
 21
1.273481
 31
0.0
  0
LINE
100
AcDbLine
  8
Layer
  6
CONTINUOUS
 10
0.226481
 20
1.273481
 30
0.0
 11
0.126481
 21
1.173481
 31
0.0
  0
LINE
100
AcDbLine
  8
Layer
  6
CONTINUOUS
 10
0.126481
 20
1.173481
 30
0.0
 11
1.226481
 21
0.073481
 31
0.0
  0
LINE
100
AcDbLine
  8
Layer
  6
CONTINUOUS
 10
0.826481
 20
0.073481
 30
0.0
 11
0.926481
 21
0.173481
 31
0.0
  0
LINE
100
AcDbLine
  8
Layer
  6
CONTINUOUS
 10
0.926481
 20
0.173481
 30
0.0
 11
0.226481
 21
0.873481
 31
0.0
  0
LINE
100
AcDbLine
  8
Layer
  6
CONTINUOUS
 10
0.226481
 20
0.873481
 30
0.0
 11
0.126481
 21
0.773481
 31
0.0
  0
LINE
100
AcDbLine
  8
Layer
  6
CONTINUOUS
 10
0.126481
 20
0.773481
 30
0.0
 11
0.826481
 21
0.073481
 31
0.0
  0
LINE
100
AcDbLine
  8
Layer
  6
CONTINUOUS
 10
0.426481
 20
0.073481
 30
0.0
 11
0.526481
 21
0.173481
 31
0.0
  0
LINE
100
AcDbLine
  8
Layer
  6
CONTINUOUS
 10
0.526481
 20
0.173481
 30
0.0
 11
0.226481
 21
0.473481
 31
0.0
  0
LINE
100
AcDbLine
  8
Layer
  6
CONTINUOUS
 10
0.226481
 20
0.473481
 30
0.0
 11
0.126481
 21
0.373481
 31
0.0
  0
LINE
100
AcDbLine
  8
Layer
  6
CONTINUOUS
 10
0.126481
 20
0.373481
 30
0.0
 11
0.426481
 21
0.073481
 31
0.0
  0
CIRCLE
100
AcDbCircle
  8
Layer
  6
CONTINUOUS
 10
1.407481
 20
1.407481
 30
0.0
 40
0.106
  0
CIRCLE
100
AcDbCircle
  8
Layer
  6
CONTINUOUS
 10
-1.40748
 20
1.407481
 30
0.0
 40
0.106
  0
CIRCLE
100
AcDbCircle
  8
Layer
  6
CONTINUOUS
 10
-1.40748
 20
-1.40748
 30
0.0
 40
0.106
  0
CIRCLE
100
AcDbCircle
  8
Layer
  6
CONTINUOUS
 10
1.407481
 20
-1.40748
 30
0.0
 40
0.106
  0
LINE
100
AcDbLine
  8
Layer
  6
CONTINUOUS
 10
-0.926769
 20
1.173231
 30
0.0
 11
-1.026769
 21
1.273231
 31
0.0
  0
LINE
100
AcDbLine
  8
Layer
  6
CONTINUOUS
 10
-1.026769
 20
1.273231
 30
0.0
 11
-1.326769
 21
0.973231
 31
0.0
  0
LINE
100
AcDbLine
  8
Layer
  6
CONTINUOUS
 10
-1.326769
 20
0.973231
 30
0.0
 11
-1.226769
 21
0.873231
 31
0.0
  0
LINE
100
AcDbLine
  8
Layer
  6
CONTINUOUS
 10
-1.226769
 20
0.873231
 30
0.0
 11
-0.926769
 21
1.173231
 31
0.0
  0
LINE
100
AcDbLine
  8
Layer
  6
CONTINUOUS
 10
-0.526769
 20
1.173231
 30
0.0
 11
-0.626769
 21
1.273231
 31
0.0
  0
LINE
100
AcDbLine
  8
Layer
  6
CONTINUOUS
 10
-0.626769
 20
1.273231
 30
0.0
 11
-1.326769
 21
0.573231
 31
0.0
  0
LINE
100
AcDbLine
  8
Layer
  6
CONTINUOUS
 10
-1.326769
 20
0.573231
 30
0.0
 11
-1.226769
 21
0.473231
 31
0.0
  0
LINE
100
AcDbLine
  8
Layer
  6
CONTINUOUS
 10
-1.226769
 20
0.473231
 30
0.0
 11
-0.526769
 21
1.173231
 31
0.0
  0
LINE
100
AcDbLine
  8
Layer
  6
CONTINUOUS
 10
-0.126769
 20
1.173231
 30
0.0
 11
-0.226769
 21
1.273231
 31
0.0
  0
LINE
100
AcDbLine
  8
Layer
  6
CONTINUOUS
 10
-0.226769
 20
1.273231
 30
0.0
 11
-1.326769
 21
0.173231
 31
0.0
  0
LINE
100
AcDbLine
  8
Layer
  6
CONTINUOUS
 10
-1.326769
 20
0.173231
 30
0.0
 11
-1.226769
 21
0.073231
 31
0.0
  0
LINE
100
AcDbLine
  8
Layer
  6
CONTINUOUS
 10
-1.226769
 20
0.073231
 30
0.0
 11
-0.126769
 21
1.173231
 31
0.0
  0
LINE
100
AcDbLine
  8
Layer
  6
CONTINUOUS
 10
-0.126769
 20
0.773231
 30
0.0
 11
-0.226769
 21
0.873231
 31
0.0
  0
LINE
100
AcDbLine
  8
Layer
  6
CONTINUOUS
 10
-0.226769
 20
0.873231
 30
0.0
 11
-0.926769
 21
0.173231
 31
0.0
  0
LINE
100
AcDbLine
  8
Layer
  6
CONTINUOUS
 10
-0.926769
 20
0.173231
 30
0.0
 11
-0.826769
 21
0.073231
 31
0.0
  0
LINE
100
AcDbLine
  8
Layer
  6
CONTINUOUS
 10
-0.826769
 20
0.073231
 30
0.0
 11
-0.126769
 21
0.773231
 31
0.0
  0
LINE
100
AcDbLine
  8
Layer
  6
CONTINUOUS
 10
-0.126769
 20
0.373231
 30
0.0
 11
-0.226769
 21
0.473231
 31
0.0
  0
LINE
100
AcDbLine
  8
Layer
  6
CONTINUOUS
 10
-0.226769
 20
0.473231
 30
0.0
 11
-0.526769
 21
0.173231
 31
0.0
  0
LINE
100
AcDbLine
  8
Layer
  6
CONTINUOUS
 10
-0.526769
 20
0.173231
 30
0.0
 11
-0.426769
 21
0.073231
 31
0.0
  0
LINE
100
AcDbLine
  8
Layer
  6
CONTINUOUS
 10
-0.426769
 20
0.073231
 30
0.0
 11
-0.126769
 21
0.373231
 31
0.0
  0
LINE
100
AcDbLine
  8
Layer
  6
CONTINUOUS
 10
-1.226480
 20
-0.873480
 30
0.0
 11
-1.326480
 21
-0.973480
 31
0.0
  0
LINE
100
AcDbLine
  8
Layer
  6
CONTINUOUS
 10
-1.326480
 20
-0.973480
 30
0.0
 11
-1.026480
 21
-1.273480
 31
0.0
  0
LINE
100
AcDbLine
  8
Layer
  6
CONTINUOUS
 10
-1.026480
 20
-1.273480
 30
0.0
 11
-0.926480
 21
-1.173480
 31
0.0
  0
LINE
100
AcDbLine
  8
Layer
  6
CONTINUOUS
 10
-0.926480
 20
-1.173480
 30
0.0
 11
-1.226480
 21
-0.873480
 31
0.0
  0
LINE
100
AcDbLine
  8
Layer
  6
CONTINUOUS
 10
-1.226480
 20
-0.473480
 30
0.0
 11
-1.326480
 21
-0.573480
 31
0.0
  0
LINE
100
AcDbLine
  8
Layer
  6
CONTINUOUS
 10
-1.326480
 20
-0.573480
 30
0.0
 11
-0.626480
 21
-1.273480
 31
0.0
  0
LINE
100
AcDbLine
  8
Layer
  6
CONTINUOUS
 10
-0.626480
 20
-1.273480
 30
0.0
 11
-0.526480
 21
-1.173480
 31
0.0
  0
LINE
100
AcDbLine
  8
Layer
  6
CONTINUOUS
 10
-0.526480
 20
-1.173480
 30
0.0
 11
-1.226480
 21
-0.473480
 31
0.0
  0
LINE
100
AcDbLine
  8
Layer
  6
CONTINUOUS
 10
-1.226480
 20
-0.073480
 30
0.0
 11
-1.326480
 21
-0.173480
 31
0.0
  0
LINE
100
AcDbLine
  8
Layer
  6
CONTINUOUS
 10
-1.326480
 20
-0.173480
 30
0.0
 11
-0.226480
 21
-1.273480
 31
0.0
  0
LINE
100
AcDbLine
  8
Layer
  6
CONTINUOUS
 10
-0.226480
 20
-1.273480
 30
0.0
 11
-0.126480
 21
-1.173480
 31
0.0
  0
LINE
100
AcDbLine
  8
Layer
  6
CONTINUOUS
 10
-0.126480
 20
-1.173480
 30
0.0
 11
-1.226480
 21
-0.073480
 31
0.0
  0
LINE
100
AcDbLine
  8
Layer
  6
CONTINUOUS
 10
-0.826480
 20
-0.073480
 30
0.0
 11
-0.926480
 21
-0.173480
 31
0.0
  0
LINE
100
AcDbLine
  8
Layer
  6
CONTINUOUS
 10
-0.926480
 20
-0.173480
 30
0.0
 11
-0.226480
 21
-0.873480
 31
0.0
  0
LINE
100
AcDbLine
  8
Layer
  6
CONTINUOUS
 10
-0.226480
 20
-0.873480
 30
0.0
 11
-0.126480
 21
-0.773480
 31
0.0
  0
LINE
100
AcDbLine
  8
Layer
  6
CONTINUOUS
 10
-0.126480
 20
-0.773480
 30
0.0
 11
-0.826480
 21
-0.073480
 31
0.0
  0
LINE
100
AcDbLine
  8
Layer
  6
CONTINUOUS
 10
-0.426480
 20
-0.073480
 30
0.0
 11
-0.526480
 21
-0.173480
 31
0.0
  0
LINE
100
AcDbLine
  8
Layer
  6
CONTINUOUS
 10
-0.526480
 20
-0.173480
 30
0.0
 11
-0.226480
 21
-0.473480
 31
0.0
  0
LINE
100
AcDbLine
  8
Layer
  6
CONTINUOUS
 10
-0.226480
 20
-0.473480
 30
0.0
 11
-0.126480
 21
-0.373480
 31
0.0
  0
LINE
100
AcDbLine
  8
Layer
  6
CONTINUOUS
 10
-0.126480
 20
-0.373480
 30
0.0
 11
-0.426480
 21
-0.073480
 31
0.0
  0
LINE
100
AcDbLine
  8
Layer
  6
CONTINUOUS
 10
0.926481
 20
-1.173480
 30
0.0
 11
1.026481
 21
-1.273480
 31
0.0
  0
LINE
100
AcDbLine
  8
Layer
  6
CONTINUOUS
 10
1.026481
 20
-1.273480
 30
0.0
 11
1.326481
 21
-0.973480
 31
0.0
  0
LINE
100
AcDbLine
  8
Layer
  6
CONTINUOUS
 10
1.326481
 20
-0.973480
 30
0.0
 11
1.226481
 21
-0.873480
 31
0.0
  0
LINE
100
AcDbLine
  8
Layer
  6
CONTINUOUS
 10
1.226481
 20
-0.873480
 30
0.0
 11
0.926481
 21
-1.173480
 31
0.0
  0
LINE
100
AcDbLine
  8
Layer
  6
CONTINUOUS
 10
0.526481
 20
-1.173480
 30
0.0
 11
0.626481
 21
-1.273480
 31
0.0
  0
LINE
100
AcDbLine
  8
Layer
  6
CONTINUOUS
 10
0.626481
 20
-1.273480
 30
0.0
 11
1.326481
 21
-0.573480
 31
0.0
  0
LINE
100
AcDbLine
  8
Layer
  6
CONTINUOUS
 10
1.326481
 20
-0.573480
 30
0.0
 11
1.226481
 21
-0.473480
 31
0.0
  0
LINE
100
AcDbLine
  8
Layer
  6
CONTINUOUS
 10
1.226481
 20
-0.473480
 30
0.0
 11
0.526481
 21
-1.173480
 31
0.0
  0
LINE
100
AcDbLine
  8
Layer
  6
CONTINUOUS
 10
0.126481
 20
-1.173480
 30
0.0
 11
0.226481
 21
-1.273480
 31
0.0
  0
LINE
100
AcDbLine
  8
Layer
  6
CONTINUOUS
 10
0.226481
 20
-1.273480
 30
0.0
 11
1.326481
 21
-0.173480
 31
0.0
  0
LINE
100
AcDbLine
  8
Layer
  6
CONTINUOUS
 10
1.326481
 20
-0.173480
 30
0.0
 11
1.226481
 21
-0.073480
 31
0.0
  0
LINE
100
AcDbLine
  8
Layer
  6
CONTINUOUS
 10
1.226481
 20
-0.073480
 30
0.0
 11
0.126481
 21
-1.173480
 31
0.0
  0
LINE
100
AcDbLine
  8
Layer
  6
CONTINUOUS
 10
0.126481
 20
-0.773480
 30
0.0
 11
0.226481
 21
-0.873480
 31
0.0
  0
LINE
100
AcDbLine
  8
Layer
  6
CONTINUOUS
 10
0.226481
 20
-0.873480
 30
0.0
 11
0.926481
 21
-0.173480
 31
0.0
  0
LINE
100
AcDbLine
  8
Layer
  6
CONTINUOUS
 10
0.926481
 20
-0.173480
 30
0.0
 11
0.826481
 21
-0.073480
 31
0.0
  0
LINE
100
AcDbLine
  8
Layer
  6
CONTINUOUS
 10
0.826481
 20
-0.073480
 30
0.0
 11
0.126481
 21
-0.773480
 31
0.0
  0
LINE
100
AcDbLine
  8
Layer
  6
CONTINUOUS
 10
0.126481
 20
-0.373480
 30
0.0
 11
0.226481
 21
-0.473480
 31
0.0
  0
LINE
100
AcDbLine
  8
Layer
  6
CONTINUOUS
 10
0.226481
 20
-0.473480
 30
0.0
 11
0.526481
 21
-0.173480
 31
0.0
  0
LINE
100
AcDbLine
  8
Layer
  6
CONTINUOUS
 10
0.526481
 20
-0.173480
 30
0.0
 11
0.426481
 21
-0.073480
 31
0.0
  0
LINE
100
AcDbLine
  8
Layer
  6
CONTINUOUS
 10
0.426481
 20
-0.073480
 30
0.0
 11
0.126481
 21
-0.373480
 31
0.0
  0
ENDSEC
  0
SECTION
  2
OBJECTS
  0
DICTIONARY
  5
C
330
0
100
AcDbDictionary
  3
ACAD_GROUP
350
D
  3
ACAD_IMAGE_VARS
350
42
  3
ACAD_MLINESTYLE
350
17
  3
APPDATA
350
41
  3
DWGPROPS
350
44
  0
DICTIONARY
  5
D
102
{ACAD_REACTORS
330
C
102
}
330
C
100
AcDbDictionary
  0
RASTERVARIABLES
  5
42
102
{ACAD_REACTORS
330
C
102
}
330
C
100
AcDbRasterVariables
 90
        0
 70
     1
 71
     1
 72
     1
  0
DICTIONARY
  5
17
102
{ACAD_REACTORS
330
C
102
}
330
C
100
AcDbDictionary
  3
STANDARD
350
18
  0
DICTIONARY
  5
41
102
{ACAD_REACTORS
330
C
102
}
330
C
100
AcDbDictionary
  0
XRECORD
  5
44
102
{ACAD_REACTORS
330
C
102
}
330
C
100
AcDbXrecord
  1
DWGPROPS COOKIE
  2

  3

  4

  6

  7

  8
Douglas
  9

300
=
301
=
302
=
303
=
304
=
305
=
306
=
307
=
308
=
309
=
 40
0.0
 41
2456272.448869213
 42
2456272.449449097
  1

 90
        0
  0
MLINESTYLE
  5
18
102
{ACAD_REACTORS
330
17
102
}
330
17
100
AcDbMlineStyle
  2
Standard
 70
     0
  3

 62
   256
 51
90.0
 52
90.0
 71
     2
 49
0.5
 62
   256
  6
BYLAYER
 49
-0.5
 62
   256
  6
BYLAYER
  0
ENDSEC
  0
EOF
