  0
SECTION
  2
HEADER
  9
$ACADVER
  1
AC1014
  9
$ACADMAINTVER
 70
     9
  9
$DWGCODEPAGE
  3
ANSI_1252
  9
$INSBASE
 10
0.0
 20
0.0
 30
0.0
  9
$EXTMIN
 10
-0.7180000000000002
 20
-0.0000000000000036
 30
0.0
  9
$EXTMAX
 10
0.718
 20
0.4400000000000022
 30
0.0
  9
$LIMMIN
 10
0.0
 20
0.0
  9
$LIMMAX
 10
0.0
 20
0.0
  9
$ORTHOMODE
 70
     0
  9
$REGENMODE
 70
     1
  9
$FILLMODE
 70
     1
  9
$QTEXTMODE
 70
     0
  9
$MIRRTEXT
 70
     1
  9
$DRAGMODE
 70
     2
  9
$LTSCALE
 40
1.0
  9
$OSMODE
 70
    37
  9
$ATTMODE
 70
     1
  9
$TEXTSIZE
 40
0.2
  9
$TRACEWID
 40
0.05
  9
$TEXTSTYLE
  7
STANDARD
  9
$CLAYER
  8
0
  9
$CELTYPE
  6
CONTINUOUS
  9
$CECOLOR
 62
   256
  9
$CELTSCALE
 40
1.0
  9
$DELOBJ
 70
     1
  9
$DISPSILH
 70
     0
  9
$DIMSCALE
 40
1.0
  9
$DIMASZ
 40
0.156
  9
$DIMEXO
 40
0.05
  9
$DIMDLI
 40
0.38
  9
$DIMRND
 40
0.0
  9
$DIMDLE
 40
0.125
  9
$DIMEXE
 40
0.18
  9
$DIMTP
 40
0.0
  9
$DIMTM
 40
0.0
  9
$DIMTXT
 40
0.1377952755905512
  9
$DIMCEN
 40
0.09
  9
$DIMTSZ
 40
0.0
  9
$DIMTOL
 70
     0
  9
$DIMLIM
 70
     0
  9
$DIMTIH
 70
     1
  9
$DIMTOH
 70
     1
  9
$DIMSE1
 70
     0
  9
$DIMSE2
 70
     0
  9
$DIMTAD
 70
     0
  9
$DIMZIN
 70
     0
  9
$DIMBLK
  1

  9
$DIMASO
 70
     1
  9
$DIMSHO
 70
     1
  9
$DIMPOST
  1

  9
$DIMAPOST
  1

  9
$DIMALT
 70
     0
  9
$DIMALTD
 70
     2
  9
$DIMALTF
 40
25.4
  9
$DIMLFAC
 40
1.0
  9
$DIMTOFL
 70
     0
  9
$DIMTVP
 40
0.0
  9
$DIMTIX
 70
     0
  9
$DIMSOXD
 70
     0
  9
$DIMSAH
 70
     0
  9
$DIMBLK1
  1

  9
$DIMBLK2
  1

  9
$DIMSTYLE
  2
STANDARD
  9
$DIMCLRD
 70
     0
  9
$DIMCLRE
 70
     0
  9
$DIMCLRT
 70
     0
  9
$DIMTFAC
 40
1.0
  9
$DIMGAP
 40
0.05
  9
$DIMJUST
 70
     0
  9
$DIMSD1
 70
     0
  9
$DIMSD2
 70
     0
  9
$DIMTOLJ
 70
     1
  9
$DIMTZIN
 70
     0
  9
$DIMALTZ
 70
     0
  9
$DIMALTTZ
 70
     0
  9
$DIMFIT
 70
     3
  9
$DIMUPT
 70
     0
  9
$DIMUNIT
 70
     2
  9
$DIMDEC
 70
     4
  9
$DIMTDEC
 70
     4
  9
$DIMALTU
 70
     2
  9
$DIMALTTD
 70
     2
  9
$DIMTXSTY
  7
STANDARD
  9
$DIMAUNIT
 70
     0
  9
$LUNITS
 70
     2
  9
$LUPREC
 70
     3
  9
$SKETCHINC
 40
0.1
  9
$FILLETRAD
 40
0.0
  9
$AUNITS
 70
     0
  9
$AUPREC
 70
     2
  9
$MENU
  1
.
  9
$ELEVATION
 40
0.0
  9
$PELEVATION
 40
0.0
  9
$THICKNESS
 40
0.0
  9
$LIMCHECK
 70
     0
  9
$CHAMFERA
 40
0.0
  9
$CHAMFERB
 40
0.0
  9
$CHAMFERC
 40
0.0
  9
$CHAMFERD
 40
0.0
  9
$SKPOLY
 70
     0
  9
$TDCREATE
 40
2453353.592125822
  9
$TDUPDATE
 40
2453833.550994283
  9
$TDINDWG
 40
0.0433642361
  9
$TDUSRTIMER
 40
0.0433642361
  9
$USRTIMER
 70
     1
  9
$ANGBASE
 50
0.0
  9
$ANGDIR
 70
     0
  9
$PDMODE
 70
     0
  9
$PDSIZE
 40
-1.0
  9
$PLINEWID
 40
0.0
  9
$COORDS
 70
     1
  9
$SPLFRAME
 70
     0
  9
$SPLINETYPE
 70
     6
  9
$SPLINESEGS
 70
     8
  9
$ATTDIA
 70
     0
  9
$ATTREQ
 70
     1
  9
$HANDLING
 70
     1
  9
$HANDSEED
  5
2A7
  9
$SURFTAB1
 70
     6
  9
$SURFTAB2
 70
     6
  9
$SURFTYPE
 70
     6
  9
$SURFU
 70
     6
  9
$SURFV
 70
     6
  9
$UCSNAME
  2

  9
$UCSORG
 10
0.0
 20
0.0
 30
0.0
  9
$UCSXDIR
 10
1.0
 20
0.0
 30
0.0
  9
$UCSYDIR
 10
0.0
 20
1.0
 30
0.0
  9
$PUCSNAME
  2

  9
$PUCSORG
 10
0.0
 20
0.0
 30
0.0
  9
$PUCSXDIR
 10
1.0
 20
0.0
 30
0.0
  9
$PUCSYDIR
 10
0.0
 20
1.0
 30
0.0
  9
$USERI1
 70
     0
  9
$USERI2
 70
     0
  9
$USERI3
 70
     0
  9
$USERI4
 70
     0
  9
$USERI5
 70
     0
  9
$USERR1
 40
0.0
  9
$USERR2
 40
0.0
  9
$USERR3
 40
0.0
  9
$USERR4
 40
0.0
  9
$USERR5
 40
0.0
  9
$WORLDVIEW
 70
     1
  9
$SHADEDGE
 70
     3
  9
$SHADEDIF
 70
    70
  9
$TILEMODE
 70
     1
  9
$MAXACTVP
 70
    16
  9
$PINSBASE
 10
0.0
 20
0.0
 30
0.0
  9
$PLIMCHECK
 70
     0
  9
$PEXTMIN
 10
1.000000000000000E+20
 20
1.000000000000000E+20
 30
1.000000000000000E+20
  9
$PEXTMAX
 10
-1.000000000000000E+20
 20
-1.000000000000000E+20
 30
-1.000000000000000E+20
  9
$PLIMMIN
 10
0.0
 20
0.0
  9
$PLIMMAX
 10
12.0
 20
9.0
  9
$UNITMODE
 70
     0
  9
$VISRETAIN
 70
     0
  9
$PLINEGEN
 70
     1
  9
$PSLTSCALE
 70
     1
  9
$TREEDEPTH
 70
  3020
  9
$PICKSTYLE
 70
     1
  9
$CMLSTYLE
  2
STANDARD
  9
$CMLJUST
 70
     0
  9
$CMLSCALE
 40
1.0
  9
$PROXYGRAPHICS
 70
     0
  9
$MEASUREMENT
 70
     0
  0
ENDSEC
  0
SECTION
  2
CLASSES
  0
CLASS
  1
ACDBDICTIONARYWDFLT
  2
AcDbDictionaryWithDefault
  3
ObjectDBX Classes
 90
        0
280
     0
281
     0
  0
CLASS
  1
ACDBPLACEHOLDER
  2
AcDbPlaceHolder
  3
ObjectDBX Classes
 90
        0
280
     0
281
     0
  0
CLASS
  1
LAYOUT
  2
AcDbLayout
  3
ObjectDBX Classes
 90
        0
280
     0
281
     0
  0
CLASS
  1
DICTIONARYVAR
  2
AcDbDictionaryVar
  3
ObjectDBX Classes
 90
        0
280
     0
281
     0
  0
CLASS
  1
TABLESTYLE
  2
AcDbTableStyle
  3
ObjectDBX Classes
 90
     4095
280
     0
281
     0
  0
CLASS
  1
SCALE
  2
AcDbScale
  3
ObjectDBX Classes
 90
     1153
280
     0
281
     0
  0
CLASS
  1
WIPEOUTVARIABLES
  2
AcDbWipeoutVariables
  3
WipeOut|AutoCAD Express Tool|expresstools@autodesk.com
 90
        0
280
     0
281
     0
  0
CLASS
  1
XRECORD
  2
AcDbXrecord
  3
AutoCAD 2000
 90
        0
280
     0
281
     0
  0
CLASS
  1
LWPOLYLINE
  2
AcDbPolyline
  3
AutoCAD 2000
 90
        0
280
     0
281
     1
  0
CLASS
  1
HATCH
  2
AcDbHatch
  3
AutoCAD 2000
 90
        0
280
     0
281
     1
  0
ENDSEC
  0
SECTION
  2
TABLES
  0
TABLE
  2
VPORT
  5
8
330
0
100
AcDbSymbolTable
 70
     2
  0
VPORT
  5
97
330
8
100
AcDbSymbolTableRecord
100
AcDbViewportTableRecord
  2
*ACTIVE
 70
     0
 10
0.0
 20
0.0
 11
1.0
 21
1.0
 12
-0.0000000000000001
 22
0.2199999999999993
 13
0.0
 23
0.0
 14
1.0
 24
1.0
 15
0.0
 25
0.0
 16
0.0
 26
0.0
 36
1.0
 17
0.0
 27
0.0
 37
0.0
 40
0.6379118816067654
 41
1.81551724137931
 42
50.0
 43
0.0
 44
0.0
 50
0.0
 51
0.0
 71
    16
 72
  2000
 73
     1
 74
     1
 75
     0
 76
     0
 77
     0
 78
     0
  0
ENDTAB
  0
TABLE
  2
LTYPE
  5
5
330
0
100
AcDbSymbolTable
 70
     6
  0
LTYPE
  5
14
330
5
100
AcDbSymbolTableRecord
100
AcDbLinetypeTableRecord
  2
BYBLOCK
 70
     0
  3

 72
    65
 73
     0
 40
0.0
  0
LTYPE
  5
15
330
5
100
AcDbSymbolTableRecord
100
AcDbLinetypeTableRecord
  2
BYLAYER
 70
     0
  3

 72
    65
 73
     0
 40
0.0
  0
LTYPE
  5
16
330
5
100
AcDbSymbolTableRecord
100
AcDbLinetypeTableRecord
  2
CONTINUOUS
 70
     0
  3
Solid line
 72
    65
 73
     0
 40
0.0
  0
LTYPE
  5
222
330
5
100
AcDbSymbolTableRecord
100
AcDbLinetypeTableRecord
  2
HIDDEN
 70
     0
  3
Hidden __ __ __ __ __ __ __ __ __ __ __ __ __ __
 72
    65
 73
     2
 40
0.075
 49
0.05
 74
     4
 75
     0
340
0
 46
1.0
 50
0.0
 44
0.0
 45
0.0
 49
-0.025
 74
     4
 75
     0
340
0
 46
1.0
 50
0.0
 44
0.0
 45
0.0
  0
LTYPE
  5
223
330
5
100
AcDbSymbolTableRecord
100
AcDbLinetypeTableRecord
  2
PHANTOM
 70
     0
  3
Phantom ______  __  __  ______  __  __  ______
 72
    65
 73
     6
 40
0.4999999999999999
 49
0.25
 74
     4
 75
     0
340
0
 46
1.0
 50
0.0
 44
0.0
 45
0.0
 49
-0.05
 74
     4
 75
     0
340
0
 46
1.0
 50
0.0
 44
0.0
 45
0.0
 49
0.05
 74
     4
 75
     0
340
0
 46
1.0
 50
0.0
 44
0.0
 45
0.0
 49
-0.05
 74
     4
 75
     0
340
0
 46
1.0
 50
0.0
 44
0.0
 45
0.0
 49
0.05
 74
     4
 75
     0
340
0
 46
1.0
 50
0.0
 44
0.0
 45
0.0
 49
-0.05
 74
     4
 75
     0
340
0
 46
1.0
 50
0.0
 44
0.0
 45
0.0
  0
LTYPE
  5
224
330
5
100
AcDbSymbolTableRecord
100
AcDbLinetypeTableRecord
  2
CENTER
 70
     0
  3
Center ____ _ ____ _ ____ _ ____ _ ____ _ ____
 72
    65
 73
     4
 40
0.4
 49
0.25
 74
     4
 75
     0
340
0
 46
1.0
 50
0.0
 44
0.0
 45
0.0
 49
-0.05
 74
     4
 75
     0
340
0
 46
1.0
 50
0.0
 44
0.0
 45
0.0
 49
0.05
 74
     4
 75
     0
340
0
 46
1.0
 50
0.0
 44
0.0
 45
0.0
 49
-0.05
 74
     4
 75
     0
340
0
 46
1.0
 50
0.0
 44
0.0
 45
0.0
  0
LTYPE
  5
225
330
5
100
AcDbSymbolTableRecord
100
AcDbLinetypeTableRecord
  2
CENTERX2
 70
     0
  3
Center (2x) ________  __  ________  __  _____
 72
    65
 73
     4
 40
0.7999999999999999
 49
0.5
 74
     4
 75
     0
340
0
 46
1.0
 50
0.0
 44
0.0
 45
0.0
 49
-0.1
 74
     4
 75
     0
340
0
 46
1.0
 50
0.0
 44
0.0
 45
0.0
 49
0.1
 74
     4
 75
     0
340
0
 46
1.0
 50
0.0
 44
0.0
 45
0.0
 49
-0.1
 74
     4
 75
     0
340
0
 46
1.0
 50
0.0
 44
0.0
 45
0.0
  0
LTYPE
  5
226
330
5
100
AcDbSymbolTableRecord
100
AcDbLinetypeTableRecord
  2
DOT2
 70
     0
  3
Dot (.5x) ........................................
 72
    65
 73
     2
 40
0.025
 49
0.0
 74
     4
 75
     0
340
0
 46
1.0
 50
0.0
 44
0.0
 45
0.0
 49
-0.025
 74
     4
 75
     0
340
0
 46
1.0
 50
0.0
 44
0.0
 45
0.0
  0
ENDTAB
  0
TABLE
  2
LAYER
  5
2
330
0
100
AcDbSymbolTable
 70
     2
  0
LAYER
  5
10
330
2
100
AcDbSymbolTableRecord
100
AcDbLayerTableRecord
  2
0
 70
     0
 62
     7
  6
CONTINUOUS
  0
LAYER
  5
23
330
2
100
AcDbSymbolTableRecord
100
AcDbLayerTableRecord
  2
DEFPOINTS
 70
     0
 62
     7
  6
CONTINUOUS
  0
ENDTAB
  0
TABLE
  2
STYLE
  5
3
330
0
100
AcDbSymbolTable
 70
     2
  0
STYLE
  5
11
330
3
100
AcDbSymbolTableRecord
100
AcDbTextStyleTableRecord
  2
STANDARD
 70
     0
 40
0.0
 41
1.0
 50
0.0
 71
     0
 42
0.2
  3
TXT
  4

  0
STYLE
  5
34
330
3
100
AcDbSymbolTableRecord
100
AcDbTextStyleTableRecord
  2
SLDTEXTSTYLE0
 70
     0
 40
0.0
 41
0.75
 50
0.0
 71
     0
 42
0.2
  3
TXT
  4

  0
ENDTAB
  0
TABLE
  2
VIEW
  5
6
330
0
100
AcDbSymbolTable
 70
     0
  0
ENDTAB
  0
TABLE
  2
UCS
  5
7
330
0
100
AcDbSymbolTable
 70
     0
  0
ENDTAB
  0
TABLE
  2
APPID
  5
9
330
0
100
AcDbSymbolTable
 70
     2
  0
APPID
  5
12
330
9
100
AcDbSymbolTableRecord
100
AcDbRegAppTableRecord
  2
ACAD
 70
     0
  0
APPID
  5
221
330
9
100
AcDbSymbolTableRecord
100
AcDbRegAppTableRecord
  2
DCO15
 70
     0
  0
ENDTAB
  0
TABLE
  2
DIMSTYLE
  5
A
330
0
100
AcDbSymbolTable
 70
     7
  0
DIMSTYLE
105
27
330
A
100
AcDbSymbolTableRecord
100
AcDbDimStyleTableRecord
  2
STANDARD
 70
     0
  3

  4

  5

  6

  7

 40
1.0
 41
0.18
 42
0.0625
 43
0.38
 44
0.18
 45
0.0
 46
0.0
 47
0.0
 48
0.0
140
0.18
141
0.09
142
0.0
143
25.4
144
1.0
145
0.0
146
1.0
147
0.09
 71
     0
 72
     0
 73
     1
 74
     1
 75
     0
 76
     0
 77
     0
 78
     0
170
     0
171
     2
172
     0
173
     0
174
     0
175
     0
176
     0
177
     0
178
     0
270
     2
271
     4
272
     4
273
     2
274
     2
340
11
275
     0
280
     0
281
     0
282
     0
283
     1
284
     0
285
     0
286
     0
288
     0
  0
DIMSTYLE
105
3C
330
A
100
AcDbSymbolTableRecord
100
AcDbDimStyleTableRecord
  2
SLDDIMSTYLE0
 70
     0
  3

  4

  5

  6

  7

 40
1.0
 41
0.156
 42
0.0625
 43
0.38
 44
0.125
 45
0.0
 46
0.0
 47
0.0
 48
0.0
140
0.1377952755905512
141
0.09
142
0.0
143
25.4
144
1.0
145
0.0
146
1.0
147
0.0344488188976378
 71
     0
 72
     0
 73
     1
 74
     1
 75
     0
 76
     0
 77
     0
 78
    12
170
     0
171
     2
172
     0
173
     1
174
     0
175
     0
176
     7
177
     7
178
     7
270
     2
271
     3
272
     4
273
     2
274
     2
340
11
275
     0
280
     0
281
     0
282
     0
283
     1
284
    12
285
     0
286
     0
288
     0
  0
DIMSTYLE
105
4A
330
A
100
AcDbSymbolTableRecord
100
AcDbDimStyleTableRecord
  2
SLDDIMSTYLE1
 70
     0
  3

  4

  5

  6

  7

 40
1.0
 41
0.156
 42
0.0625
 43
0.38
 44
0.125
 45
0.0
 46
0.0
 47
0.0
 48
0.0
140
0.1377952755905512
141
0.09
142
0.0
143
25.4
144
1.0
145
0.0
146
1.0
147
0.0344488188976378
 71
     0
 72
     0
 73
     1
 74
     1
 75
     0
 76
     0
 77
     0
 78
     4
170
     0
171
     2
172
     0
173
     1
174
     0
175
     0
176
     7
177
     7
178
     7
270
     2
271
     2
272
     4
273
     2
274
     2
340
11
275
     0
280
     0
281
     0
282
     0
283
     1
284
    12
285
     0
286
     0
288
     0
  0
DIMSTYLE
105
65
330
A
100
AcDbSymbolTableRecord
100
AcDbDimStyleTableRecord
  2
SLDDIMSTYLE2
 70
     0
  3

  4

  5

  6

  7

 40
1.0
 41
0.156
 42
0.0625
 43
0.38
 44
0.125
 45
0.0
 46
0.0
 47
0.0
 48
0.0
140
0.1377952755905512
141
0.09
142
0.0
143
25.4
144
1.0
145
0.0
146
1.0
147
0.0344488188976378
 71
     0
 72
     0
 73
     1
 74
     1
 75
     0
 76
     0
 77
     0
 78
     4
170
     0
171
     2
172
     0
173
     1
174
     0
175
     0
176
     7
177
     7
178
     7
270
     2
271
     3
272
     4
273
     2
274
     2
340
11
275
     0
280
     0
281
     0
282
     0
283
     1
284
    12
285
     0
286
     0
288
     0
  0
DIMSTYLE
105
71
330
A
100
AcDbSymbolTableRecord
100
AcDbDimStyleTableRecord
  2
SLDDIMSTYLE3
 70
     0
  3

  4

  5

  6

  7

 40
1.0
 41
0.156
 42
0.0625
 43
0.38
 44
0.125
 45
0.0
 46
0.0
 47
0.0
 48
0.0
140
0.1377952755905512
141
0.09
142
0.0
143
25.4
144
1.0
145
0.0
146
1.0
147
0.0344488188976378
 71
     0
 72
     0
 73
     1
 74
     1
 75
     0
 76
     0
 77
     0
 78
    12
170
     0
171
     2
172
     1
173
     1
174
     0
175
     0
176
     7
177
     7
178
     7
270
     2
271
     3
272
     4
273
     2
274
     2
340
11
275
     0
280
     0
281
     0
282
     0
283
     1
284
    12
285
     0
286
     0
288
     0
  0
DIMSTYLE
105
8A
330
A
100
AcDbSymbolTableRecord
100
AcDbDimStyleTableRecord
  2
SLDDIMSTYLE4
 70
     0
  3

  4

  5

  6

  7

 40
1.0
 41
0.156
 42
0.0625
 43
0.38
 44
0.125
 45
0.0
 46
0.0
 47
0.0
 48
0.0
140
0.1377952755905512
141
0.09
142
0.0
143
25.4
144
1.0
145
0.0
146
1.0
147
0.0344488188976378
 71
     0
 72
     0
 73
     1
 74
     1
 75
     0
 76
     0
 77
     0
 78
     4
170
     0
171
     2
172
     0
173
     1
174
     0
175
     0
176
     7
177
     7
178
     7
270
     2
271
     3
272
     4
273
     2
274
     2
340
11
275
     0
280
     0
281
     0
282
     0
283
     1
284
    12
285
     0
286
     0
288
     0
  0
DIMSTYLE
105
1BD
330
A
100
AcDbSymbolTableRecord
100
AcDbDimStyleTableRecord
  2
SLDDIMSTYLE5
 70
     0
  3

  4

  5

  6

  7

 40
1.0
 41
0.156
 42
0.0625
 43
0.38
 44
0.125
 45
0.0
 46
0.0
 47
0.0
 48
0.0
140
0.1377952755905512
141
0.09
142
0.0
143
25.4
144
1.0
145
0.0
146
1.0
147
0.0344488188976378
 71
     0
 72
     0
 73
     1
 74
     1
 75
     0
 76
     0
 77
     0
 78
    12
170
     0
171
     2
172
     0
173
     1
174
     0
175
     0
176
     7
177
     7
178
     7
270
     2
271
     3
272
     4
273
     2
274
     2
340
11
275
     0
280
     0
281
     0
282
     0
283
     1
284
    12
285
     0
286
     0
288
     0
  0
ENDTAB
  0
TABLE
  2
BLOCK_RECORD
  5
1
330
0
100
AcDbSymbolTable
 70
    25
  0
BLOCK_RECORD
  5
1F
102
{ACAD_XDICTIONARY
360
27F
102
}
330
1
100
AcDbSymbolTableRecord
100
AcDbBlockTableRecord
  2
*MODEL_SPACE
  0
BLOCK_RECORD
  5
73
330
1
100
AcDbSymbolTableRecord
100
AcDbBlockTableRecord
  2
*PAPER_SPACE
  0
BLOCK_RECORD
  5
32
330
1
100
AcDbSymbolTableRecord
100
AcDbBlockTableRecord
  2
*D0
  0
BLOCK_RECORD
  5
41
330
1
100
AcDbSymbolTableRecord
100
AcDbBlockTableRecord
  2
*D1
  0
BLOCK_RECORD
  5
51
330
1
100
AcDbSymbolTableRecord
100
AcDbBlockTableRecord
  2
*D2
  0
BLOCK_RECORD
  5
22E
330
1
100
AcDbSymbolTableRecord
100
AcDbBlockTableRecord
  2
*D3
  0
BLOCK_RECORD
  5
6A
330
1
100
AcDbSymbolTableRecord
100
AcDbBlockTableRecord
  2
*D4
  0
BLOCK_RECORD
  5
233
330
1
100
AcDbSymbolTableRecord
100
AcDbBlockTableRecord
  2
*D5
  0
BLOCK_RECORD
  5
81
330
1
100
AcDbSymbolTableRecord
100
AcDbBlockTableRecord
  2
*D6
  0
BLOCK_RECORD
  5
238
330
1
100
AcDbSymbolTableRecord
100
AcDbBlockTableRecord
  2
*D7
  0
BLOCK_RECORD
  5
23B
330
1
100
AcDbSymbolTableRecord
100
AcDbBlockTableRecord
  2
*D8
  0
BLOCK_RECORD
  5
23E
330
1
100
AcDbSymbolTableRecord
100
AcDbBlockTableRecord
  2
*D9
  0
BLOCK_RECORD
  5
C2
330
1
100
AcDbSymbolTableRecord
100
AcDbBlockTableRecord
  2
*D10
  0
BLOCK_RECORD
  5
CD
330
1
100
AcDbSymbolTableRecord
100
AcDbBlockTableRecord
  2
*D11
  0
BLOCK_RECORD
  5
D8
330
1
100
AcDbSymbolTableRecord
100
AcDbBlockTableRecord
  2
*D12
  0
BLOCK_RECORD
  5
F3
330
1
100
AcDbSymbolTableRecord
100
AcDbBlockTableRecord
  2
*D13
  0
BLOCK_RECORD
  5
100
330
1
100
AcDbSymbolTableRecord
100
AcDbBlockTableRecord
  2
*D14
  0
BLOCK_RECORD
  5
10D
330
1
100
AcDbSymbolTableRecord
100
AcDbBlockTableRecord
  2
*D15
  0
BLOCK_RECORD
  5
118
330
1
100
AcDbSymbolTableRecord
100
AcDbBlockTableRecord
  2
*D16
  0
BLOCK_RECORD
  5
123
330
1
100
AcDbSymbolTableRecord
100
AcDbBlockTableRecord
  2
*D17
  0
BLOCK_RECORD
  5
130
330
1
100
AcDbSymbolTableRecord
100
AcDbBlockTableRecord
  2
*D18
  0
BLOCK_RECORD
  5
149
330
1
100
AcDbSymbolTableRecord
100
AcDbBlockTableRecord
  2
*D19
  0
BLOCK_RECORD
  5
156
330
1
100
AcDbSymbolTableRecord
100
AcDbBlockTableRecord
  2
*D20
  0
BLOCK_RECORD
  5
163
330
1
100
AcDbSymbolTableRecord
100
AcDbBlockTableRecord
  2
*D21
  0
BLOCK_RECORD
  5
16E
330
1
100
AcDbSymbolTableRecord
100
AcDbBlockTableRecord
  2
*D22
  0
BLOCK_RECORD
  5
179
330
1
100
AcDbSymbolTableRecord
100
AcDbBlockTableRecord
  2
*D23
  0
BLOCK_RECORD
  5
186
330
1
100
AcDbSymbolTableRecord
100
AcDbBlockTableRecord
  2
*D24
  0
ENDTAB
  0
ENDSEC
  0
SECTION
  2
BLOCKS
  0
BLOCK
  5
20
330
1F
100
AcDbEntity
  8
0
100
AcDbBlockBegin
  2
*MODEL_SPACE
 70
     0
 10
0.0
 20
0.0
 30
0.0
  3
*MODEL_SPACE
  1

  0
ENDBLK
  5
21
330
1F
100
AcDbEntity
  8
0
100
AcDbBlockEnd
  0
BLOCK
  5
75
330
73
100
AcDbEntity
 67
     1
  8
0
100
AcDbBlockBegin
  2
*PAPER_SPACE
 70
     0
 10
0.0
 20
0.0
 30
0.0
  3
*PAPER_SPACE
  1

  0
ENDBLK
  5
76
330
73
100
AcDbEntity
 67
     1
  8
0
100
AcDbBlockEnd
  0
BLOCK
  5
228
330
32
100
AcDbEntity
  8
0
100
AcDbBlockBegin
  2
*D0
 70
     1
 10
0.0
 20
0.0
 30
0.0
  3
*D0
  1

  0
MTEXT
  5
35
330
32
100
AcDbEntity
  8
0
 62
     7
100
AcDbMText
 10
2.106780576176502
 20
6.208073111460558
 30
0.0
 40
0.1377952755905512
 41
0.0
 71
     7
 72
     1
  1
.807
  7
SLDTEXTSTYLE0
  0
LINE
  5
36
330
32
100
AcDbEntity
  8
0
 62
     7
100
AcDbLine
 10
2.672008771929821
 20
6.87355263157895
 30
0.0
 11
2.672008771929821
 21
6.133343176366429
 31
0.0
  0
LINE
  5
37
330
32
100
AcDbEntity
  8
0
 62
     7
100
AcDbLine
 10
1.865008771929822
 20
6.87355263157895
 30
0.0
 11
1.865008771929822
 21
6.133343176366429
 31
0.0
  0
LINE
  5
38
330
32
100
AcDbEntity
  8
0
 62
     7
100
AcDbLine
 10
2.672008771929821
 20
6.258343176366429
 30
0.0
 11
2.525100781154541
 21
6.258343176366428
 31
0.0
  0
LINE
  5
39
330
32
100
AcDbEntity
  8
0
 62
     7
100
AcDbLine
 10
1.865008771929822
 20
6.258343176366429
 30
0.0
 11
2.044280576176503
 21
6.258343176366429
 31
0.0
  0
SOLID
  5
3A
330
32
100
AcDbEntity
  8
0
 62
     7
100
AcDbTrace
 10
2.672008771929821
 20
6.258343176366429
 30
0.0
 11
2.516008771929821
 21
6.284343176366428
 31
0.0
 12
2.516008771929821
 22
6.232343176366429
 32
0.0
 13
2.516008771929821
 23
6.232343176366429
 33
0.0
  0
SOLID
  5
3B
330
32
100
AcDbEntity
  8
0
 62
     7
100
AcDbTrace
 10
1.865008771929822
 20
6.258343176366429
 30
0.0
 11
2.021008771929821
 21
6.232343176366429
 31
0.0
 12
2.021008771929821
 22
6.284343176366428
 32
0.0
 13
2.021008771929821
 23
6.284343176366428
 33
0.0
  0
POINT
  5
3D
330
32
100
AcDbEntity
  8
DEFPOINTS
 62
     7
100
AcDbPoint
 10
2.672008771929821
 20
6.923552631578949
 30
0.0
  0
POINT
  5
3E
330
32
100
AcDbEntity
  8
DEFPOINTS
 62
     7
100
AcDbPoint
 10
1.865008771929822
 20
6.923552631578949
 30
0.0
  0
ENDBLK
  5
229
330
32
100
AcDbEntity
  8
0
100
AcDbBlockEnd
  0
BLOCK
  5
22A
330
41
100
AcDbEntity
  8
0
100
AcDbBlockBegin
  2
*D1
 70
     1
 10
0.0
 20
0.0
 30
0.0
  3
*D1
  1

  0
MTEXT
  5
43
330
41
100
AcDbEntity
  8
0
 62
     7
100
AcDbMText
 10
1.750563748406006
 20
7.891919380632155
 30
0.0
 40
0.1377952755905512
 41
0.0
 71
     7
 72
     1
  1
10.0%%d
  7
SLDTEXTSTYLE0
  0
LINE
  5
44
330
41
100
AcDbEntity
  8
0
 62
     7
100
AcDbLine
 10
2.268508771929823
 20
7.569330329480298
 30
0.0
 11
2.268508771929823
 21
8.081023227633485
 31
0.0
  0
LINE
  5
45
330
41
100
AcDbEntity
  8
0
 62
     7
100
AcDbLine
 10
1.858301355154888
 20
6.950218756132859
 30
0.0
 11
1.668171191773056
 21
8.028500495081182
 31
0.0
  0
ARC
  5
46
330
41
100
AcDbEntity
  8
0
 62
     7
100
AcDbCircle
 10
2.268508771929823
 20
4.623816891104834
 30
0.0
 40
3.33220633652865
100
AcDbArc
 50
83.30815372919177
 51
90.0
  0
ARC
  5
47
330
41
100
AcDbEntity
  8
0
 62
     7
100
AcDbCircle
 10
2.268508771929823
 20
4.623816891104834
 30
0.0
 40
3.332206336528651
100
AcDbArc
 50
100.0
 51
106.6918462708082
  0
SOLID
  5
48
330
41
100
AcDbEntity
  8
0
 62
     7
100
AcDbTrace
 10
2.268508771929823
 20
7.956023227633484
 30
0.0
 11
2.423857991377902
 21
7.926381702421839
 31
0.0
 12
2.42507420390881
 22
7.978367477659683
 32
0.0
 13
2.42507420390881
 23
7.978367477659683
 33
0.0
  0
SOLID
  5
49
330
41
100
AcDbEntity
  8
0
 62
     7
100
AcDbTrace
 10
1.689877213981423
 20
7.905399525954656
 30
0.0
 11
1.531810324416427
 21
7.900217014666914
 31
0.0
 12
1.54203529508083
 22
7.849232213255982
 32
0.0
 13
1.54203529508083
 23
7.849232213255982
 33
0.0
  0
POINT
  5
4B
330
41
100
AcDbEntity
  8
DEFPOINTS
 62
     7
100
AcDbPoint
 10
2.268508771929822
 20
6.613552631578949
 30
0.0
  0
POINT
  5
4C
330
41
100
AcDbEntity
  8
DEFPOINTS
 62
     7
100
AcDbPoint
 10
2.268508771929822
 20
7.519330329480298
 30
0.0
  0
POINT
  5
4D
330
41
100
AcDbEntity
  8
DEFPOINTS
 62
     7
100
AcDbPoint
 10
1.866983764038235
 20
6.900978368482248
 30
0.0
  0
POINT
  5
4E
330
41
100
AcDbEntity
  8
DEFPOINTS
 62
     7
100
AcDbPoint
 10
1.898722620565758
 20
6.720978368482248
 30
0.0
  0
ENDBLK
  5
22B
330
41
100
AcDbEntity
  8
0
100
AcDbBlockEnd
  0
BLOCK
  5
22C
330
51
100
AcDbEntity
  8
0
100
AcDbBlockBegin
  2
*D2
 70
     1
 10
0.0
 20
0.0
 30
0.0
  3
*D2
  1

  0
MTEXT
  5
53
330
51
100
AcDbEntity
  8
0
 62
     7
100
AcDbMText
 10
2.090112530413365
 20
5.86915618094344
 30
0.0
 40
0.1377952755905512
 41
0.0
 71
     7
 72
     1
  1
.984
  7
SLDTEXTSTYLE0
  0
LINE
  5
54
330
51
100
AcDbEntity
  8
0
 62
     7
100
AcDbLine
 10
2.760508771929822
 20
6.78355263157895
 30
0.0
 11
2.760508771929822
 21
5.79442624584931
 31
0.0
  0
LINE
  5
55
330
51
100
AcDbEntity
  8
0
 62
     7
100
AcDbLine
 10
1.776508771929822
 20
6.78355263157895
 30
0.0
 11
1.776508771929822
 21
5.79442624584931
 31
0.0
  0
LINE
  5
56
330
51
100
AcDbEntity
  8
0
 62
     7
100
AcDbLine
 10
2.760508771929822
 20
5.919426245849311
 30
0.0
 11
2.508432735391403
 21
5.919426245849311
 31
0.0
  0
LINE
  5
57
330
51
100
AcDbEntity
  8
0
 62
     7
100
AcDbLine
 10
1.776508771929822
 20
5.919426245849311
 30
0.0
 11
2.027612530413365
 21
5.919426245849311
 31
0.0
  0
SOLID
  5
58
330
51
100
AcDbEntity
  8
0
 62
     7
100
AcDbTrace
 10
2.760508771929822
 20
5.919426245849311
 30
0.0
 11
2.604508771929821
 21
5.945426245849311
 31
0.0
 12
2.604508771929821
 22
5.893426245849311
 32
0.0
 13
2.604508771929821
 23
5.893426245849311
 33
0.0
  0
SOLID
  5
25F
330
51
100
AcDbEntity
  8
0
 62
     7
100
AcDbTrace
 10
1.776508771929822
 20
5.919426245849311
 30
0.0
 11
1.932508771929821
 21
5.893426245849311
 31
0.0
 12
1.932508771929821
 22
5.945426245849311
 32
0.0
 13
1.932508771929821
 23
5.945426245849311
 33
0.0
  0
POINT
  5
260
330
51
100
AcDbEntity
  8
DEFPOINTS
 62
     7
100
AcDbPoint
 10
2.760508771929822
 20
6.83355263157895
 30
0.0
  0
POINT
  5
5B
330
51
100
AcDbEntity
  8
DEFPOINTS
 62
     7
100
AcDbPoint
 10
1.776508771929822
 20
6.83355263157895
 30
0.0
  0
ENDBLK
  5
22D
330
51
100
AcDbEntity
  8
0
100
AcDbBlockEnd
  0
BLOCK
  5
22F
330
22E
100
AcDbEntity
  8
0
100
AcDbBlockBegin
  2
*D3
 70
     1
 10
0.0
 20
0.0
 30
0.0
  3
*D3
  1

  0
MTEXT
  5
60
330
22E
100
AcDbEntity
  8
0
 62
     7
100
AcDbMText
 10
3.061227751994154
 20
7.309547122637674
 30
0.0
 40
0.1377952755905512
 41
0.0
 71
     7
 72
     1
  1
R
  7
SLDTEXTSTYLE0
  0
MTEXT
  5
61
330
22E
100
AcDbEntity
  8
0
 62
     7
100
AcDbMText
 10
3.172606375713041
 20
7.309547122637674
 30
0.0
 40
0.1377952755905512
 41
0.0
 71
     7
 72
     1
  1
.130
  7
SLDTEXTSTYLE0
  0
LINE
  5
62
330
22E
100
AcDbEntity
  8
0
 62
     7
100
AcDbLine
 10
2.597674808568281
 20
7.041031533365464
 30
0.0
 11
2.748727751994154
 21
7.359817187543544
 31
0.0
  0
LINE
  5
63
330
22E
100
AcDbEntity
  8
0
 62
     7
100
AcDbLine
 10
2.748727751994154
 20
7.359817187543544
 30
0.0
 11
2.998727751994154
 21
7.359817187543544
 31
0.0
  0
SOLID
  5
64
330
22E
100
AcDbEntity
  8
0
 62
     7
100
AcDbTrace
 10
2.597674808568281
 20
7.041031533365464
 30
0.0
 11
2.687969832891736
 21
7.170873008181591
 31
0.0
 12
2.640978272177129
 22
7.193139422836975
 32
0.0
 13
2.640978272177129
 23
7.193139422836975
 33
0.0
  0
POINT
  5
66
330
22E
100
AcDbEntity
  8
DEFPOINTS
 62
     7
100
AcDbPoint
 10
2.597674808568281
 20
7.041031533365464
 30
0.0
  0
POINT
  5
67
330
22E
100
AcDbEntity
  8
DEFPOINTS
 62
     7
100
AcDbPoint
 10
2.542008771929822
 20
6.923552631578949
 30
0.0
  0
ENDBLK
  5
230
330
22E
100
AcDbEntity
  8
0
100
AcDbBlockEnd
  0
BLOCK
  5
231
330
6A
100
AcDbEntity
  8
0
100
AcDbBlockBegin
  2
*D4
 70
     1
 10
0.0
 20
0.0
 30
0.0
  3
*D4
  1

  0
MTEXT
  5
261
330
6A
100
AcDbEntity
  8
0
 62
     7
100
AcDbMText
 10
3.194659066130178
 20
6.988236266433133
 30
0.0
 40
0.1377952755905512
 41
0.0
 71
     7
 72
     1
  1
%%c
  7
SLDTEXTSTYLE0
  0
MTEXT
  5
6D
330
6A
100
AcDbEntity
  8
0
 62
     7
100
AcDbMText
 10
3.391296547828568
 20
6.988236266433133
 30
0.0
 40
0.1377952755905512
 41
0.0
 71
     7
 72
     1
  1
.125
  7
SLDTEXTSTYLE0
  0
LINE
  5
6E
330
6A
100
AcDbEntity
  8
0
 62
     7
100
AcDbLine
 10
2.7924095013311
 20
6.887298268273162
 30
0.0
 11
2.882159066130178
 21
7.038506331339004
 31
0.0
  0
LINE
  5
6F
330
6A
100
AcDbEntity
  8
0
 62
     7
100
AcDbLine
 10
2.882159066130178
 20
7.038506331339004
 30
0.0
 11
3.132159066130178
 21
7.038506331339004
 31
0.0
  0
SOLID
  5
70
330
6A
100
AcDbEntity
  8
0
 62
     7
100
AcDbTrace
 10
2.7924095013311
 20
6.887298268273162
 30
0.0
 11
2.894391906781486
 21
7.008176674030985
 31
0.0
 12
2.849675537051901
 22
7.03471808089285
 32
0.0
 13
2.849675537051901
 23
7.03471808089285
 33
0.0
  0
POINT
  5
72
330
6A
100
AcDbEntity
  8
DEFPOINTS
 62
     7
100
AcDbPoint
 10
2.7924095013311
 20
6.887298268273162
 30
0.0
  0
POINT
  5
262
330
6A
100
AcDbEntity
  8
DEFPOINTS
 62
     7
100
AcDbPoint
 10
2.728608042528541
 20
6.779806994884736
 30
0.0
  0
ENDBLK
  5
232
330
6A
100
AcDbEntity
  8
0
100
AcDbBlockEnd
  0
BLOCK
  5
234
330
233
100
AcDbEntity
  8
0
100
AcDbBlockBegin
  2
*D5
 70
     1
 10
0.0
 20
0.0
 30
0.0
  3
*D5
  1

  0
MTEXT
  5
78
330
233
100
AcDbEntity
  8
0
 62
     7
100
AcDbMText
 10
3.08763686346302
 20
6.319205442555185
 30
0.0
 40
0.1377952755905512
 41
0.0
 71
     7
 72
     1
  1
R
  7
SLDTEXTSTYLE0
  0
MTEXT
  5
79
330
233
100
AcDbEntity
  8
0
 62
     7
100
AcDbMText
 10
3.199015487181908
 20
6.319205442555185
 30
0.0
 40
0.1377952755905512
 41
0.0
 71
     7
 72
     1
  1
.130
  7
SLDTEXTSTYLE0
  0
LINE
  5
7A
330
233
100
AcDbEntity
  8
0
 62
     7
100
AcDbLine
 10
2.585392460803331
 20
6.637455491313671
 30
0.0
 11
2.77513686346302
 21
6.369475507461055
 31
0.0
  0
LINE
  5
7B
330
233
100
AcDbEntity
  8
0
 62
     7
100
AcDbLine
 10
2.77513686346302
 20
6.369475507461055
 30
0.0
 11
3.02513686346302
 21
6.369475507461055
 31
0.0
  0
SOLID
  5
7C
330
233
100
AcDbEntity
  8
0
 62
     7
100
AcDbTrace
 10
2.585392460803331
 20
6.637455491313671
 30
0.0
 11
2.654320087231515
 21
6.495114413915133
 31
0.0
 12
2.696758943337625
 22
6.525163432075546
 32
0.0
 13
2.696758943337625
 23
6.525163432075546
 33
0.0
  0
POINT
  5
7D
330
233
100
AcDbEntity
  8
DEFPOINTS
 62
     7
100
AcDbPoint
 10
2.585392460803331
 20
6.637455491313671
 30
0.0
  0
POINT
  5
7E
330
233
100
AcDbEntity
  8
DEFPOINTS
 62
     7
100
AcDbPoint
 10
2.510269915402298
 20
6.743552631578949
 30
0.0
  0
ENDBLK
  5
235
330
233
100
AcDbEntity
  8
0
100
AcDbBlockEnd
  0
BLOCK
  5
236
330
81
100
AcDbEntity
  8
0
100
AcDbBlockBegin
  2
*D6
 70
     1
 10
0.0
 20
0.0
 30
0.0
  3
*D6
  1

  0
MTEXT
  5
83
330
81
100
AcDbEntity
  8
0
 62
     7
100
AcDbMText
 10
0.5767612154581859
 20
6.754210169354741
 30
0.0
 40
0.1377952755905512
 41
0.0
 71
     7
 72
     1
  1
.440
  7
SLDTEXTSTYLE0
  0
LINE
  5
84
330
81
100
AcDbEntity
  8
0
 62
     7
100
AcDbLine
 10
1.976747628457345
 20
6.613552631578949
 30
0.0
 11
0.6296713179472051
 21
6.613552631578949
 31
0.0
  0
LINE
  5
85
330
81
100
AcDbEntity
  8
0
 62
     7
100
AcDbLine
 10
1.945008771929821
 20
7.053552631578949
 30
0.0
 11
0.6296713179472051
 21
7.053552631578949
 31
0.0
  0
LINE
  5
86
330
81
100
AcDbEntity
  8
0
 62
     7
100
AcDbLine
 10
0.7546713179472051
 20
6.613552631578949
 30
0.0
 11
0.7546713179472051
 21
6.113552631578949
 31
0.0
  0
LINE
  5
87
330
81
100
AcDbEntity
  8
0
 62
     7
100
AcDbLine
 10
0.7546713179472051
 20
7.053552631578949
 30
0.0
 11
0.7546713179472051
 21
7.553552631578949
 31
0.0
  0
SOLID
  5
88
330
81
100
AcDbEntity
  8
0
 62
     7
100
AcDbTrace
 10
0.7546713179472051
 20
6.613552631578949
 30
0.0
 11
0.728671317947205
 21
6.457552631578949
 31
0.0
 12
0.780671317947205
 22
6.457552631578949
 32
0.0
 13
0.780671317947205
 23
6.457552631578949
 33
0.0
  0
SOLID
  5
89
330
81
100
AcDbEntity
  8
0
 62
     7
100
AcDbTrace
 10
0.7546713179472051
 20
7.053552631578949
 30
0.0
 11
0.780671317947205
 21
7.209552631578949
 31
0.0
 12
0.728671317947205
 22
7.209552631578949
 32
0.0
 13
0.728671317947205
 23
7.209552631578949
 33
0.0
  0
POINT
  5
8B
330
81
100
AcDbEntity
  8
DEFPOINTS
 62
     7
100
AcDbPoint
 10
2.026747628457345
 20
6.613552631578949
 30
0.0
  0
POINT
  5
8C
330
81
100
AcDbEntity
  8
DEFPOINTS
 62
     7
100
AcDbPoint
 10
1.995008771929821
 20
7.053552631578949
 30
0.0
  0
ENDBLK
  5
237
330
81
100
AcDbEntity
  8
0
100
AcDbBlockEnd
  0
BLOCK
  5
239
330
238
100
AcDbEntity
  8
0
100
AcDbBlockBegin
  2
*D7
 70
     1
 10
0.0
 20
0.0
 30
0.0
  3
*D7
  1

  0
MTEXT
  5
263
330
238
100
AcDbEntity
  8
0
 62
     7
100
AcDbMText
 10
2.061493399630002
 20
4.674612901251958
 30
0.0
 40
0.1377952755905512
 41
0.0
 71
     7
 72
     1
  1
1.138
  7
SLDTEXTSTYLE0
  0
LINE
  5
264
330
238
100
AcDbEntity
  8
0
 62
     7
100
AcDbLine
 10
2.837508771929821
 20
5.348026315789474
 30
0.0
 11
2.837508771929821
 21
4.599882966157827
 31
0.0
  0
LINE
  5
265
330
238
100
AcDbEntity
  8
0
 62
     7
100
AcDbLine
 10
1.699508771929822
 20
5.348026315789474
 30
0.0
 11
1.699508771929822
 21
4.599882966157827
 31
0.0
  0
LINE
  5
266
330
238
100
AcDbEntity
  8
0
 62
     7
100
AcDbLine
 10
2.837508771929821
 20
4.724882966157827
 30
0.0
 11
2.581499988209798
 21
4.724882966157827
 31
0.0
  0
LINE
  5
267
330
238
100
AcDbEntity
  8
0
 62
     7
100
AcDbLine
 10
1.699508771929822
 20
4.724882966157827
 30
0.0
 11
1.998993399630003
 21
4.724882966157827
 31
0.0
  0
SOLID
  5
268
330
238
100
AcDbEntity
  8
0
 62
     7
100
AcDbTrace
 10
2.837508771929821
 20
4.724882966157827
 30
0.0
 11
2.681508771929821
 21
4.750882966157827
 31
0.0
 12
2.681508771929821
 22
4.698882966157827
 32
0.0
 13
2.681508771929821
 23
4.698882966157827
 33
0.0
  0
SOLID
  5
269
330
238
100
AcDbEntity
  8
0
 62
     7
100
AcDbTrace
 10
1.699508771929822
 20
4.724882966157827
 30
0.0
 11
1.855508771929821
 21
4.698882966157827
 31
0.0
 12
1.855508771929821
 22
4.750882966157827
 32
0.0
 13
1.855508771929821
 23
4.750882966157827
 33
0.0
  0
POINT
  5
26A
330
238
100
AcDbEntity
  8
DEFPOINTS
 62
     7
100
AcDbPoint
 10
2.837508771929821
 20
5.398026315789474
 30
0.0
  0
POINT
  5
26B
330
238
100
AcDbEntity
  8
DEFPOINTS
 62
     7
100
AcDbPoint
 10
1.699508771929822
 20
5.398026315789474
 30
0.0
  0
ENDBLK
  5
23A
330
238
100
AcDbEntity
  8
0
100
AcDbBlockEnd
  0
BLOCK
  5
23C
330
23B
100
AcDbEntity
  8
0
100
AcDbBlockBegin
  2
*D8
 70
     1
 10
0.0
 20
0.0
 30
0.0
  3
*D8
  1

  0
MTEXT
  5
26C
330
23B
100
AcDbEntity
  8
0
 62
     7
100
AcDbMText
 10
2.07816144539314
 20
4.324583940226081
 30
0.0
 40
0.1377952755905512
 41
0.0
 71
     7
 72
     1
  1
1.311
  7
SLDTEXTSTYLE0
  0
LINE
  5
26D
330
23B
100
AcDbEntity
  8
0
 62
     7
100
AcDbLine
 10
2.924008771929821
 20
5.258026315789473
 30
0.0
 11
2.924008771929821
 21
4.249854005131951
 31
0.0
  0
LINE
  5
26E
330
23B
100
AcDbEntity
  8
0
 62
     7
100
AcDbLine
 10
1.613008771929821
 20
5.258026315789473
 30
0.0
 11
1.613008771929821
 21
4.249854005131951
 31
0.0
  0
LINE
  5
26F
330
23B
100
AcDbEntity
  8
0
 62
     7
100
AcDbLine
 10
2.924008771929821
 20
4.374854005131951
 30
0.0
 11
2.598168033972934
 21
4.374854005131951
 31
0.0
  0
LINE
  5
270
330
23B
100
AcDbEntity
  8
0
 62
     7
100
AcDbLine
 10
1.613008771929821
 20
4.374854005131951
 30
0.0
 11
2.01566144539314
 21
4.374854005131951
 31
0.0
  0
SOLID
  5
271
330
23B
100
AcDbEntity
  8
0
 62
     7
100
AcDbTrace
 10
2.924008771929821
 20
4.374854005131951
 30
0.0
 11
2.768008771929821
 21
4.400854005131951
 31
0.0
 12
2.768008771929821
 22
4.348854005131951
 32
0.0
 13
2.768008771929821
 23
4.348854005131951
 33
0.0
  0
SOLID
  5
272
330
23B
100
AcDbEntity
  8
0
 62
     7
100
AcDbTrace
 10
1.613008771929821
 20
4.374854005131951
 30
0.0
 11
1.769008771929821
 21
4.348854005131951
 31
0.0
 12
1.769008771929821
 22
4.400854005131951
 32
0.0
 13
1.769008771929821
 23
4.400854005131951
 33
0.0
  0
POINT
  5
273
330
23B
100
AcDbEntity
  8
DEFPOINTS
 62
     7
100
AcDbPoint
 10
2.924008771929821
 20
5.308026315789473
 30
0.0
  0
POINT
  5
274
330
23B
100
AcDbEntity
  8
DEFPOINTS
 62
     7
100
AcDbPoint
 10
1.613008771929821
 20
5.308026315789473
 30
0.0
  0
ENDBLK
  5
23D
330
23B
100
AcDbEntity
  8
0
100
AcDbBlockEnd
  0
BLOCK
  5
23F
330
23E
100
AcDbEntity
  8
0
100
AcDbBlockBegin
  2
*D9
 70
     1
 10
0.0
 20
0.0
 30
0.0
  3
*D9
  1

  0
MTEXT
  5
275
330
23E
100
AcDbEntity
  8
0
 62
     7
100
AcDbMText
 10
3.368581921378769
 20
5.82930618692221
 30
0.0
 40
0.1377952755905512
 41
0.0
 71
     7
 72
     1
  1
R
  7
SLDTEXTSTYLE0
  0
MTEXT
  5
276
330
23E
100
AcDbEntity
  8
0
 62
     7
100
AcDbMText
 10
3.479960545097656
 20
5.82930618692221
 30
0.0
 40
0.1377952755905512
 41
0.0
 71
     7
 72
     1
  1
.130
  7
SLDTEXTSTYLE0
  0
LINE
  5
BB
330
23E
100
AcDbEntity
  8
0
 62
     7
100
AcDbLine
 10
2.783735618547209
 20
5.503332858106507
 30
0.0
 11
3.056081921378769
 21
5.879576251828081
 31
0.0
  0
LINE
  5
BC
330
23E
100
AcDbEntity
  8
0
 62
     7
100
AcDbLine
 10
3.056081921378769
 20
5.879576251828081
 30
0.0
 11
3.306081921378769
 21
5.879576251828081
 31
0.0
  0
SOLID
  5
BD
330
23E
100
AcDbEntity
  8
0
 62
     7
100
AcDbTrace
 10
2.783735618547209
 20
5.503332858106507
 30
0.0
 11
2.89626914295148
 21
5.61445533956347
 31
0.0
 12
2.854146526024667
 22
5.644946078210425
 32
0.0
 13
2.854146526024667
 23
5.644946078210425
 33
0.0
  0
POINT
  5
BE
330
23E
100
AcDbEntity
  8
DEFPOINTS
 62
     7
100
AcDbPoint
 10
2.783735618547209
 20
5.503332858106507
 30
0.0
  0
POINT
  5
BF
330
23E
100
AcDbEntity
  8
DEFPOINTS
 62
     7
100
AcDbPoint
 10
2.707508771929821
 20
5.398026315789474
 30
0.0
  0
ENDBLK
  5
240
330
23E
100
AcDbEntity
  8
0
100
AcDbBlockEnd
  0
BLOCK
  5
241
330
C2
100
AcDbEntity
  8
0
100
AcDbBlockBegin
  2
*D10
 70
     1
 10
0.0
 20
0.0
 30
0.0
  3
*D10
  1

  0
MTEXT
  5
C4
330
C2
100
AcDbEntity
  8
0
 62
     7
100
AcDbMText
 10
3.254894569432507
 20
4.813886088829804
 30
0.0
 40
0.1377952755905512
 41
0.0
 71
     7
 72
     1
  1
R
  7
SLDTEXTSTYLE0
  0
MTEXT
  5
C5
330
C2
100
AcDbEntity
  8
0
 62
     7
100
AcDbMText
 10
3.366273193151394
 20
4.813886088829804
 30
0.0
 40
0.1377952755905512
 41
0.0
 71
     7
 72
     1
  1
.130
  7
SLDTEXTSTYLE0
  0
LINE
  5
C6
330
C2
100
AcDbEntity
  8
0
 62
     7
100
AcDbLine
 10
2.753999198624527
 20
5.114198673773793
 30
0.0
 11
2.942394569432508
 21
4.864156153735672
 31
0.0
  0
LINE
  5
C7
330
C2
100
AcDbEntity
  8
0
 62
     7
100
AcDbLine
 10
2.942394569432508
 20
4.864156153735672
 30
0.0
 11
3.192394569432507
 21
4.864156153735672
 31
0.0
  0
SOLID
  5
C8
330
C2
100
AcDbEntity
  8
0
 62
     7
100
AcDbTrace
 10
2.753999198624527
 20
5.114198673773793
 30
0.0
 11
2.827108810088067
 21
4.973959646710531
 31
0.0
 12
2.868639866894339
 22
5.005251359999423
 32
0.0
 13
2.868639866894339
 23
5.005251359999423
 33
0.0
  0
POINT
  5
C9
330
C2
100
AcDbEntity
  8
DEFPOINTS
 62
     7
100
AcDbPoint
 10
2.753999198624527
 20
5.114198673773793
 30
0.0
  0
POINT
  5
CA
330
C2
100
AcDbEntity
  8
DEFPOINTS
 62
     7
100
AcDbPoint
 10
2.675769915402298
 20
5.218026315789473
 30
0.0
  0
ENDBLK
  5
242
330
C2
100
AcDbEntity
  8
0
100
AcDbBlockEnd
  0
BLOCK
  5
243
330
CD
100
AcDbEntity
  8
0
100
AcDbBlockBegin
  2
*D11
 70
     1
 10
0.0
 20
0.0
 30
0.0
  3
*D11
  1

  0
MTEXT
  5
CF
330
CD
100
AcDbEntity
  8
0
 62
     7
100
AcDbMText
 10
3.394411585879551
 20
5.555832878094239
 30
0.0
 40
0.1377952755905512
 41
0.0
 71
     7
 72
     1
  1
%%c
  7
SLDTEXTSTYLE0
  0
MTEXT
  5
D0
330
CD
100
AcDbEntity
  8
0
 62
     7
100
AcDbMText
 10
3.59104906757794
 20
5.555832878094239
 30
0.0
 40
0.1377952755905512
 41
0.0
 71
     7
 72
     1
  1
.125
  7
SLDTEXTSTYLE0
  0
LINE
  5
D1
330
CD
100
AcDbEntity
  8
0
 62
     7
100
AcDbLine
 10
2.953265869884756
 20
5.363255585377757
 30
0.0
 11
3.081911585879551
 21
5.606102943000109
 31
0.0
  0
LINE
  5
D2
330
CD
100
AcDbEntity
  8
0
 62
     7
100
AcDbLine
 10
3.081911585879551
 20
5.606102943000109
 30
0.0
 11
3.331911585879551
 21
5.606102943000109
 31
0.0
  0
SOLID
  5
D3
330
CD
100
AcDbEntity
  8
0
 62
     7
100
AcDbTrace
 10
2.953265869884756
 20
5.363255585377757
 30
0.0
 11
3.049266962529
 21
5.488936889520861
 31
0.0
 12
3.003316210231548
 22
5.513278795019367
 32
0.0
 13
3.003316210231548
 23
5.513278795019367
 33
0.0
  0
POINT
  5
D4
330
CD
100
AcDbEntity
  8
DEFPOINTS
 62
     7
100
AcDbPoint
 10
2.953265869884756
 20
5.363255585377757
 30
0.0
  0
POINT
  5
D5
330
CD
100
AcDbEntity
  8
DEFPOINTS
 62
     7
100
AcDbPoint
 10
2.894751673974886
 20
5.252797046201189
 30
0.0
  0
ENDBLK
  5
244
330
CD
100
AcDbEntity
  8
0
100
AcDbBlockEnd
  0
BLOCK
  5
245
330
D8
100
AcDbEntity
  8
0
100
AcDbBlockBegin
  2
*D12
 70
     1
 10
0.0
 20
0.0
 30
0.0
  3
*D12
  1

  0
MTEXT
  5
DA
330
D8
100
AcDbEntity
  8
0
 62
     7
100
AcDbMText
 10
0.5735064159891027
 20
5.226450286485053
 30
0.0
 40
0.1377952755905512
 41
0.0
 71
     7
 72
     1
  1
.440
  7
SLDTEXTSTYLE0
  0
LINE
  5
DB
330
D8
100
AcDbEntity
  8
0
 62
     7
100
AcDbLine
 10
1.779508771929822
 20
5.528026315789474
 30
0.0
 11
0.6264165184781219
 21
5.528026315789474
 31
0.0
  0
LINE
  5
DC
330
D8
100
AcDbEntity
  8
0
 62
     7
100
AcDbLine
 10
1.811247628457345
 20
5.088026315789472
 30
0.0
 11
0.6264165184781219
 21
5.088026315789472
 31
0.0
  0
LINE
  5
DD
330
D8
100
AcDbEntity
  8
0
 62
     7
100
AcDbLine
 10
0.7514165184781219
 20
5.528026315789474
 30
0.0
 11
0.7514165184781219
 21
6.028026315789473
 31
0.0
  0
LINE
  5
DE
330
D8
100
AcDbEntity
  8
0
 62
     7
100
AcDbLine
 10
0.7514165184781219
 20
5.088026315789472
 30
0.0
 11
0.7514165184781219
 21
4.588026315789472
 31
0.0
  0
SOLID
  5
DF
330
D8
100
AcDbEntity
  8
0
 62
     7
100
AcDbTrace
 10
0.7514165184781219
 20
5.528026315789474
 30
0.0
 11
0.7774165184781219
 21
5.684026315789473
 31
0.0
 12
0.7254165184781219
 22
5.684026315789473
 32
0.0
 13
0.7254165184781219
 23
5.684026315789473
 33
0.0
  0
SOLID
  5
E0
330
D8
100
AcDbEntity
  8
0
 62
     7
100
AcDbTrace
 10
0.7514165184781219
 20
5.088026315789472
 30
0.0
 11
0.7254165184781219
 21
4.932026315789473
 31
0.0
 12
0.7774165184781219
 22
4.932026315789473
 32
0.0
 13
0.7774165184781219
 23
4.932026315789473
 33
0.0
  0
POINT
  5
E1
330
D8
100
AcDbEntity
  8
DEFPOINTS
 62
     7
100
AcDbPoint
 10
1.829508771929822
 20
5.528026315789474
 30
0.0
  0
POINT
  5
E2
330
D8
100
AcDbEntity
  8
DEFPOINTS
 62
     7
100
AcDbPoint
 10
1.861247628457345
 20
5.088026315789472
 30
0.0
  0
ENDBLK
  5
246
330
D8
100
AcDbEntity
  8
0
100
AcDbBlockEnd
  0
BLOCK
  5
247
330
F3
100
AcDbEntity
  8
0
100
AcDbBlockBegin
  2
*D13
 70
     1
 10
0.0
 20
0.0
 30
0.0
  3
*D13
  1

  0
MTEXT
  5
F5
330
F3
100
AcDbEntity
  8
0
 62
     7
100
AcDbMText
 10
2.033713323358107
 20
2.952248172394472
 30
0.0
 40
0.1377952755905512
 41
0.0
 71
     7
 72
     1
  1
1.677
  7
SLDTEXTSTYLE0
  0
LINE
  5
F6
330
F3
100
AcDbEntity
  8
0
 62
     7
100
AcDbLine
 10
3.107008771929822
 20
3.658464912280701
 30
0.0
 11
3.107008771929822
 21
2.877518237300342
 31
0.0
  0
LINE
  5
F7
330
F3
100
AcDbEntity
  8
0
 62
     7
100
AcDbLine
 10
1.430008771929821
 20
3.658464912280701
 30
0.0
 11
1.430008771929821
 21
2.877518237300342
 31
0.0
  0
LINE
  5
F8
330
F3
100
AcDbEntity
  8
0
 62
     7
100
AcDbLine
 10
3.107008771929822
 20
3.002518237300342
 30
0.0
 11
2.553719911937903
 21
3.002518237300342
 31
0.0
  0
LINE
  5
F9
330
F3
100
AcDbEntity
  8
0
 62
     7
100
AcDbLine
 10
1.430008771929821
 20
3.002518237300342
 30
0.0
 11
1.971213323358107
 21
3.002518237300342
 31
0.0
  0
SOLID
  5
FA
330
F3
100
AcDbEntity
  8
0
 62
     7
100
AcDbTrace
 10
3.107008771929822
 20
3.002518237300342
 30
0.0
 11
2.951008771929822
 21
3.028518237300342
 31
0.0
 12
2.951008771929822
 22
2.976518237300342
 32
0.0
 13
2.951008771929822
 23
2.976518237300342
 33
0.0
  0
SOLID
  5
FB
330
F3
100
AcDbEntity
  8
0
 62
     7
100
AcDbTrace
 10
1.430008771929821
 20
3.002518237300342
 30
0.0
 11
1.586008771929821
 21
2.976518237300342
 31
0.0
 12
1.586008771929821
 22
3.028518237300342
 32
0.0
 13
1.586008771929821
 23
3.028518237300342
 33
0.0
  0
POINT
  5
FC
330
F3
100
AcDbEntity
  8
DEFPOINTS
 62
     7
100
AcDbPoint
 10
3.107008771929822
 20
3.7084649122807
 30
0.0
  0
POINT
  5
FD
330
F3
100
AcDbEntity
  8
DEFPOINTS
 62
     7
100
AcDbPoint
 10
1.430008771929821
 20
3.7084649122807
 30
0.0
  0
ENDBLK
  5
248
330
F3
100
AcDbEntity
  8
0
100
AcDbBlockEnd
  0
BLOCK
  5
249
330
100
100
AcDbEntity
  8
0
100
AcDbBlockBegin
  2
*D14
 70
     1
 10
0.0
 20
0.0
 30
0.0
  3
*D14
  1

  0
MTEXT
  5
102
330
100
100
AcDbEntity
  8
0
 62
     7
100
AcDbMText
 10
2.005933247086213
 20
2.552215074079185
 30
0.0
 40
0.1377952755905512
 41
0.0
 71
     7
 72
     1
  1
1.850
  7
SLDTEXTSTYLE0
  0
LINE
  5
103
330
100
100
AcDbEntity
  8
0
 62
     7
100
AcDbLine
 10
1.343508771929821
 20
3.568464912280701
 30
0.0
 11
1.343508771929822
 21
2.477485138985055
 31
0.0
  0
LINE
  5
104
330
100
100
AcDbEntity
  8
0
 62
     7
100
AcDbLine
 10
3.193508771929822
 20
3.568464912280701
 30
0.0
 11
3.193508771929822
 21
2.477485138985055
 31
0.0
  0
LINE
  5
105
330
100
100
AcDbEntity
  8
0
 62
     7
100
AcDbLine
 10
1.343508771929822
 20
2.602485138985055
 30
0.0
 11
1.943433247086213
 21
2.602485138985055
 31
0.0
  0
LINE
  5
106
330
100
100
AcDbEntity
  8
0
 62
     7
100
AcDbLine
 10
3.193508771929822
 20
2.602485138985055
 30
0.0
 11
2.525939835666008
 21
2.602485138985055
 31
0.0
  0
SOLID
  5
107
330
100
100
AcDbEntity
  8
0
 62
     7
100
AcDbTrace
 10
1.343508771929822
 20
2.602485138985055
 30
0.0
 11
1.499508771929822
 21
2.576485138985055
 31
0.0
 12
1.499508771929822
 22
2.628485138985055
 32
0.0
 13
1.499508771929822
 23
2.628485138985055
 33
0.0
  0
SOLID
  5
108
330
100
100
AcDbEntity
  8
0
 62
     7
100
AcDbTrace
 10
3.193508771929822
 20
2.602485138985055
 30
0.0
 11
3.037508771929822
 21
2.628485138985055
 31
0.0
 12
3.037508771929822
 22
2.576485138985055
 32
0.0
 13
3.037508771929822
 23
2.576485138985055
 33
0.0
  0
POINT
  5
109
330
100
100
AcDbEntity
  8
DEFPOINTS
 62
     7
100
AcDbPoint
 10
1.343508771929821
 20
3.6184649122807
 30
0.0
  0
POINT
  5
10A
330
100
100
AcDbEntity
  8
DEFPOINTS
 62
     7
100
AcDbPoint
 10
3.193508771929822
 20
3.6184649122807
 30
0.0
  0
ENDBLK
  5
24A
330
100
100
AcDbEntity
  8
0
100
AcDbBlockEnd
  0
BLOCK
  5
24B
330
10D
100
AcDbEntity
  8
0
100
AcDbBlockBegin
  2
*D15
 70
     1
 10
0.0
 20
0.0
 30
0.0
  3
*D15
  1

  0
MTEXT
  5
10F
330
10D
100
AcDbEntity
  8
0
 62
     7
100
AcDbMText
 10
3.582579209370425
 20
4.187366188562315
 30
0.0
 40
0.1377952755905512
 41
0.0
 71
     7
 72
     1
  1
R
  7
SLDTEXTSTYLE0
  0
MTEXT
  5
110
330
10D
100
AcDbEntity
  8
0
 62
     7
100
AcDbMText
 10
3.693957833089312
 20
4.187366188562315
 30
0.0
 40
0.1377952755905512
 41
0.0
 71
     7
 72
     1
  1
.130
  7
SLDTEXTSTYLE0
  0
LINE
  5
111
330
10D
100
AcDbEntity
  8
0
 62
     7
100
AcDbLine
 10
3.039992257142019
 20
3.822188615133382
 30
0.0
 11
3.270079209370425
 21
4.237636253468185
 31
0.0
  0
LINE
  5
112
330
10D
100
AcDbEntity
  8
0
 62
     7
100
AcDbLine
 10
3.270079209370425
 20
4.237636253468185
 30
0.0
 11
3.520079209370425
 21
4.237636253468185
 31
0.0
  0
SOLID
  5
113
330
10D
100
AcDbEntity
  8
0
 62
     7
100
AcDbTrace
 10
3.039992257142019
 20
3.822188615133382
 30
0.0
 11
3.138317179967192
 21
3.94606036151416
 31
0.0
 12
3.092827698826119
 22
3.971253755599039
 32
0.0
 13
3.092827698826119
 23
3.971253755599039
 33
0.0
  0
POINT
  5
114
330
10D
100
AcDbEntity
  8
DEFPOINTS
 62
     7
100
AcDbPoint
 10
3.039992257142019
 20
3.822188615133382
 30
0.0
  0
POINT
  5
115
330
10D
100
AcDbEntity
  8
DEFPOINTS
 62
     7
100
AcDbPoint
 10
2.977008771929822
 20
3.708464912280701
 30
0.0
  0
ENDBLK
  5
24C
330
10D
100
AcDbEntity
  8
0
100
AcDbBlockEnd
  0
BLOCK
  5
24D
330
118
100
AcDbEntity
  8
0
100
AcDbBlockBegin
  2
*D16
 70
     1
 10
0.0
 20
0.0
 30
0.0
  3
*D16
  1

  0
MTEXT
  5
11A
330
118
100
AcDbEntity
  8
0
 62
     7
100
AcDbMText
 10
3.52778872127746
 20
3.044475620415756
 30
0.0
 40
0.1377952755905512
 41
0.0
 71
     7
 72
     1
  1
R
  7
SLDTEXTSTYLE0
  0
MTEXT
  5
11B
330
118
100
AcDbEntity
  8
0
 62
     7
100
AcDbMText
 10
3.639167344996347
 20
3.044475620415756
 30
0.0
 40
0.1377952755905512
 41
0.0
 71
     7
 72
     1
  1
.130
  7
SLDTEXTSTYLE0
  0
LINE
  5
11C
330
118
100
AcDbEntity
  8
0
 62
     7
100
AcDbLine
 10
3.013976501966352
 20
3.418104570840869
 30
0.0
 11
3.21528872127746
 21
3.094745685321627
 31
0.0
  0
LINE
  5
11D
330
118
100
AcDbEntity
  8
0
 62
     7
100
AcDbLine
 10
3.21528872127746
 20
3.094745685321627
 30
0.0
 11
3.46528872127746
 21
3.094745685321627
 31
0.0
  0
SOLID
  5
11E
330
118
100
AcDbEntity
  8
0
 62
     7
100
AcDbTrace
 10
3.013976501966352
 20
3.418104570840869
 30
0.0
 11
3.074352337555251
 21
3.271930843800261
 31
0.0
 12
3.118496474131183
 22
3.299413478425883
 32
0.0
 13
3.118496474131183
 23
3.299413478425883
 33
0.0
  0
POINT
  5
11F
330
118
100
AcDbEntity
  8
DEFPOINTS
 62
     7
100
AcDbPoint
 10
3.013976501966352
 20
3.418104570840869
 30
0.0
  0
POINT
  5
120
330
118
100
AcDbEntity
  8
DEFPOINTS
 62
     7
100
AcDbPoint
 10
2.945269915402298
 20
3.5284649122807
 30
0.0
  0
ENDBLK
  5
24E
330
118
100
AcDbEntity
  8
0
100
AcDbBlockEnd
  0
BLOCK
  5
24F
330
123
100
AcDbEntity
  8
0
100
AcDbBlockBegin
  2
*D17
 70
     1
 10
0.0
 20
0.0
 30
0.0
  3
*D17
  1

  0
MTEXT
  5
125
330
123
100
AcDbEntity
  8
0
 62
     7
100
AcDbMText
 10
0.5893302616395856
 20
3.600125249881831
 30
0.0
 40
0.1377952755905512
 41
0.0
 71
     7
 72
     1
  1
.440
  7
SLDTEXTSTYLE0
  0
LINE
  5
126
330
123
100
AcDbEntity
  8
0
 62
     7
100
AcDbLine
 10
1.541747628457345
 20
3.3984649122807
 30
0.0
 11
0.6422403641286049
 21
3.3984649122807
 31
0.0
  0
LINE
  5
127
330
123
100
AcDbEntity
  8
0
 62
     7
100
AcDbLine
 10
1.510008771929821
 20
3.8384649122807
 30
0.0
 11
0.6422403641286049
 21
3.8384649122807
 31
0.0
  0
LINE
  5
128
330
123
100
AcDbEntity
  8
0
 62
     7
100
AcDbLine
 10
0.7672403641286049
 20
3.3984649122807
 30
0.0
 11
0.7672403641286049
 21
2.898464912280701
 31
0.0
  0
LINE
  5
129
330
123
100
AcDbEntity
  8
0
 62
     7
100
AcDbLine
 10
0.7672403641286049
 20
3.8384649122807
 30
0.0
 11
0.7672403641286049
 21
4.3384649122807
 31
0.0
  0
SOLID
  5
12A
330
123
100
AcDbEntity
  8
0
 62
     7
100
AcDbTrace
 10
0.7672403641286049
 20
3.3984649122807
 30
0.0
 11
0.741240364128605
 21
3.2424649122807
 31
0.0
 12
0.7932403641286049
 22
3.2424649122807
 32
0.0
 13
0.7932403641286049
 23
3.2424649122807
 33
0.0
  0
SOLID
  5
12B
330
123
100
AcDbEntity
  8
0
 62
     7
100
AcDbTrace
 10
0.7672403641286049
 20
3.8384649122807
 30
0.0
 11
0.7932403641286049
 21
3.994464912280701
 31
0.0
 12
0.741240364128605
 22
3.994464912280701
 32
0.0
 13
0.741240364128605
 23
3.994464912280701
 33
0.0
  0
POINT
  5
12C
330
123
100
AcDbEntity
  8
DEFPOINTS
 62
     7
100
AcDbPoint
 10
1.591747628457345
 20
3.3984649122807
 30
0.0
  0
POINT
  5
12D
330
123
100
AcDbEntity
  8
DEFPOINTS
 62
     7
100
AcDbPoint
 10
1.560008771929821
 20
3.8384649122807
 30
0.0
  0
ENDBLK
  5
250
330
123
100
AcDbEntity
  8
0
100
AcDbBlockEnd
  0
BLOCK
  5
251
330
130
100
AcDbEntity
  8
0
100
AcDbBlockBegin
  2
*D18
 70
     1
 10
0.0
 20
0.0
 30
0.0
  3
*D18
  1

  0
MTEXT
  5
132
330
130
100
AcDbEntity
  8
0
 62
     7
100
AcDbMText
 10
3.674257375285735
 20
3.937974408089737
 30
0.0
 40
0.1377952755905512
 41
0.0
 71
     7
 72
     1
  1
%%c
  7
SLDTEXTSTYLE0
  0
MTEXT
  5
133
330
130
100
AcDbEntity
  8
0
 62
     7
100
AcDbMText
 10
3.870894856984124
 20
3.937974408089737
 30
0.0
 40
0.1377952755905512
 41
0.0
 71
     7
 72
     1
  1
.125
  7
SLDTEXTSTYLE0
  0
LINE
  5
134
330
130
100
AcDbEntity
  8
0
 62
     7
100
AcDbLine
 10
3.219392744794418
 20
3.675353135567641
 30
0.0
 11
3.361757375285735
 21
3.988244472995607
 31
0.0
  0
LINE
  5
135
330
130
100
AcDbEntity
  8
0
 62
     7
100
AcDbLine
 10
3.361757375285735
 20
3.988244472995607
 30
0.0
 11
3.611757375285735
 21
3.988244472995607
 31
0.0
  0
SOLID
  5
136
330
130
100
AcDbEntity
  8
0
 62
     7
100
AcDbTrace
 10
3.219392744794418
 20
3.675353135567641
 30
0.0
 11
3.307664641951819
 21
3.806578408180173
 31
0.0
 12
3.260333640177084
 22
3.828113873603517
 32
0.0
 13
3.260333640177084
 23
3.828113873603517
 33
0.0
  0
POINT
  5
137
330
130
100
AcDbEntity
  8
DEFPOINTS
 62
     7
100
AcDbPoint
 10
3.219392744794418
 20
3.675353135567641
 30
0.0
  0
POINT
  5
138
330
130
100
AcDbEntity
  8
DEFPOINTS
 62
     7
100
AcDbPoint
 10
3.167624799065225
 20
3.561576688993759
 30
0.0
  0
ENDBLK
  5
252
330
130
100
AcDbEntity
  8
0
100
AcDbBlockEnd
  0
BLOCK
  5
253
330
149
100
AcDbEntity
  8
0
100
AcDbBlockBegin
  2
*D19
 70
     1
 10
0.0
 20
0.0
 30
0.0
  3
*D19
  1

  0
MTEXT
  5
14B
330
149
100
AcDbEntity
  8
0
 62
     7
100
AcDbMText
 10
2.011489262340591
 20
1.035422909633721
 30
0.0
 40
0.1377952755905512
 41
0.0
 71
     7
 72
     1
  1
2.327
  7
SLDTEXTSTYLE0
  0
LINE
  5
14C
330
149
100
AcDbEntity
  8
0
 62
     7
100
AcDbLine
 10
3.432008771929822
 20
1.821271929824558
 30
0.0
 11
3.432008771929822
 21
0.9606929745395913
 31
0.0
  0
LINE
  5
14D
330
149
100
AcDbEntity
  8
0
 62
     7
100
AcDbLine
 10
1.105008771929821
 20
1.821271929824558
 30
0.0
 11
1.105008771929822
 21
0.9606929745395907
 31
0.0
  0
LINE
  5
14E
330
149
100
AcDbEntity
  8
0
 62
     7
100
AcDbLine
 10
3.432008771929822
 20
1.085692974539591
 30
0.0
 11
2.531495850920387
 21
1.085692974539591
 31
0.0
  0
LINE
  5
14F
330
149
100
AcDbEntity
  8
0
 62
     7
100
AcDbLine
 10
1.105008771929822
 20
1.08569297453959
 30
0.0
 11
1.948989262340592
 21
1.08569297453959
 31
0.0
  0
SOLID
  5
150
330
149
100
AcDbEntity
  8
0
 62
     7
100
AcDbTrace
 10
3.432008771929822
 20
1.085692974539591
 30
0.0
 11
3.276008771929822
 21
1.111692974539591
 31
0.0
 12
3.276008771929822
 22
1.059692974539591
 32
0.0
 13
3.276008771929822
 23
1.059692974539591
 33
0.0
  0
SOLID
  5
151
330
149
100
AcDbEntity
  8
0
 62
     7
100
AcDbTrace
 10
1.105008771929822
 20
1.08569297453959
 30
0.0
 11
1.261008771929822
 21
1.05969297453959
 31
0.0
 12
1.261008771929822
 22
1.11169297453959
 32
0.0
 13
1.261008771929822
 23
1.11169297453959
 33
0.0
  0
POINT
  5
152
330
149
100
AcDbEntity
  8
DEFPOINTS
 62
     7
100
AcDbPoint
 10
3.432008771929822
 20
1.871271929824558
 30
0.0
  0
POINT
  5
153
330
149
100
AcDbEntity
  8
DEFPOINTS
 62
     7
100
AcDbPoint
 10
1.105008771929821
 20
1.871271929824558
 30
0.0
  0
ENDBLK
  5
254
330
149
100
AcDbEntity
  8
0
100
AcDbBlockEnd
  0
BLOCK
  5
255
330
156
100
AcDbEntity
  8
0
100
AcDbBlockBegin
  2
*D20
 70
     1
 10
0.0
 20
0.0
 30
0.0
  3
*D20
  1

  0
MTEXT
  5
158
330
156
100
AcDbEntity
  8
0
 62
     7
100
AcDbMText
 10
1.983709186068697
 20
0.6187217655552975
 30
0.0
 40
0.1377952755905512
 41
0.0
 71
     7
 72
     1
  1
2.500
  7
SLDTEXTSTYLE0
  0
LINE
  5
159
330
156
100
AcDbEntity
  8
0
 62
     7
100
AcDbLine
 10
1.018508771929821
 20
1.731271929824558
 30
0.0
 11
1.018508771929822
 21
0.5439918304611663
 31
0.0
  0
LINE
  5
15A
330
156
100
AcDbEntity
  8
0
 62
     7
100
AcDbLine
 10
3.518508771929822
 20
1.731271929824558
 30
0.0
 11
3.518508771929822
 21
0.5439918304611668
 31
0.0
  0
LINE
  5
15B
330
156
100
AcDbEntity
  8
0
 62
     7
100
AcDbLine
 10
1.018508771929822
 20
0.6689918304611663
 30
0.0
 11
1.921209186068698
 21
0.6689918304611666
 31
0.0
  0
LINE
  5
15C
330
156
100
AcDbEntity
  8
0
 62
     7
100
AcDbLine
 10
3.518508771929822
 20
0.6689918304611668
 30
0.0
 11
2.503715774648492
 21
0.6689918304611667
 31
0.0
  0
SOLID
  5
15D
330
156
100
AcDbEntity
  8
0
 62
     7
100
AcDbTrace
 10
1.018508771929822
 20
0.6689918304611663
 30
0.0
 11
1.174508771929821
 21
0.6429918304611663
 31
0.0
 12
1.174508771929821
 22
0.6949918304611664
 32
0.0
 13
1.174508771929821
 23
0.6949918304611664
 33
0.0
  0
SOLID
  5
15E
330
156
100
AcDbEntity
  8
0
 62
     7
100
AcDbTrace
 10
3.518508771929822
 20
0.6689918304611668
 30
0.0
 11
3.362508771929821
 21
0.6949918304611669
 31
0.0
 12
3.362508771929821
 22
0.6429918304611669
 32
0.0
 13
3.362508771929821
 23
0.6429918304611669
 33
0.0
  0
POINT
  5
15F
330
156
100
AcDbEntity
  8
DEFPOINTS
 62
     7
100
AcDbPoint
 10
1.018508771929821
 20
1.781271929824558
 30
0.0
  0
POINT
  5
160
330
156
100
AcDbEntity
  8
DEFPOINTS
 62
     7
100
AcDbPoint
 10
3.518508771929822
 20
1.781271929824558
 30
0.0
  0
ENDBLK
  5
256
330
156
100
AcDbEntity
  8
0
100
AcDbBlockEnd
  0
BLOCK
  5
257
330
163
100
AcDbEntity
  8
0
100
AcDbBlockBegin
  2
*D21
 70
     1
 10
0.0
 20
0.0
 30
0.0
  3
*D21
  1

  0
MTEXT
  5
165
330
163
100
AcDbEntity
  8
0
 62
     7
100
AcDbMText
 10
3.891790422654351
 20
2.351990797713448
 30
0.0
 40
0.1377952755905512
 41
0.0
 71
     7
 72
     1
  1
R
  7
SLDTEXTSTYLE0
  0
MTEXT
  5
166
330
163
100
AcDbEntity
  8
0
 62
     7
100
AcDbMText
 10
4.003169046373239
 20
2.351990797713448
 30
0.0
 40
0.1377952755905512
 41
0.0
 71
     7
 72
     1
  1
.130
  7
SLDTEXTSTYLE0
  0
LINE
  5
167
330
163
100
AcDbEntity
  8
0
 62
     7
100
AcDbLine
 10
3.362183962148507
 20
1.986506241043677
 30
0.0
 11
3.579290422654352
 21
2.402260862619318
 31
0.0
  0
LINE
  5
168
330
163
100
AcDbEntity
  8
0
 62
     7
100
AcDbLine
 10
3.579290422654352
 20
2.402260862619318
 30
0.0
 11
3.829290422654352
 21
2.402260862619318
 31
0.0
  0
SOLID
  5
169
330
163
100
AcDbEntity
  8
0
 62
     7
100
AcDbTrace
 10
3.362183962148507
 20
1.986506241043677
 30
0.0
 11
3.457441052654754
 21
2.112752376462884
 31
0.0
 12
3.411347328167107
 22
2.136822452550358
 32
0.0
 13
3.411347328167107
 23
2.136822452550358
 33
0.0
  0
POINT
  5
16A
330
163
100
AcDbEntity
  8
DEFPOINTS
 62
     7
100
AcDbPoint
 10
3.362183962148507
 20
1.986506241043677
 30
0.0
  0
POINT
  5
16B
330
163
100
AcDbEntity
  8
DEFPOINTS
 62
     7
100
AcDbPoint
 10
3.302008771929821
 20
1.871271929824558
 30
0.0
  0
ENDBLK
  5
258
330
163
100
AcDbEntity
  8
0
100
AcDbBlockEnd
  0
BLOCK
  5
259
330
16E
100
AcDbEntity
  8
0
100
AcDbBlockBegin
  2
*D22
 70
     1
 10
0.0
 20
0.0
 30
0.0
  3
*D22
  1

  0
MTEXT
  5
170
330
16E
100
AcDbEntity
  8
0
 62
     7
100
AcDbMText
 10
3.862304133216434
 20
1.156224150391813
 30
0.0
 40
0.1377952755905512
 41
0.0
 71
     7
 72
     1
  1
R
  7
SLDTEXTSTYLE0
  0
MTEXT
  5
171
330
16E
100
AcDbEntity
  8
0
 62
     7
100
AcDbMText
 10
3.973682756935321
 20
1.156224150391813
 30
0.0
 40
0.1377952755905512
 41
0.0
 71
     7
 72
     1
  1
.130
  7
SLDTEXTSTYLE0
  0
LINE
  5
172
330
16E
100
AcDbEntity
  8
0
 62
     7
100
AcDbLine
 10
3.335208519062369
 20
1.578653202453485
 30
0.0
 11
3.549804133216434
 21
1.206494215297681
 31
0.0
  0
LINE
  5
173
330
16E
100
AcDbEntity
  8
0
 62
     7
100
AcDbLine
 10
3.549804133216434
 20
1.206494215297681
 30
0.0
 11
3.799804133216434
 21
1.206494215297681
 31
0.0
  0
SOLID
  5
174
330
16E
100
AcDbEntity
  8
0
 62
     7
100
AcDbTrace
 10
3.335208519062369
 20
1.578653202453485
 30
0.0
 11
3.390611097980241
 21
1.430523008876183
 31
0.0
 12
3.43565858892867
 22
1.456498450340211
 32
0.0
 13
3.43565858892867
 23
1.456498450340211
 33
0.0
  0
POINT
  5
175
330
16E
100
AcDbEntity
  8
DEFPOINTS
 62
     7
100
AcDbPoint
 10
3.335208519062369
 20
1.578653202453485
 30
0.0
  0
POINT
  5
176
330
16E
100
AcDbEntity
  8
DEFPOINTS
 62
     7
100
AcDbPoint
 10
3.270269915402297
 20
1.691271929824558
 30
0.0
  0
ENDBLK
  5
25A
330
16E
100
AcDbEntity
  8
0
100
AcDbBlockEnd
  0
BLOCK
  5
25B
330
179
100
AcDbEntity
  8
0
100
AcDbBlockBegin
  2
*D23
 70
     1
 10
0.0
 20
0.0
 30
0.0
  3
*D23
  1

  0
MTEXT
  5
17B
330
179
100
AcDbEntity
  8
0
 62
     7
100
AcDbMText
 10
0.2657585676386853
 20
1.691032709650442
 30
0.0
 40
0.1377952755905512
 41
0.0
 71
     7
 72
     1
  1
.440
  7
SLDTEXTSTYLE0
  0
LINE
  5
17C
330
179
100
AcDbEntity
  8
0
 62
     7
100
AcDbLine
 10
1.185008771929821
 20
2.001271929824558
 30
0.0
 11
0.3186686701277044
 21
2.001271929824558
 31
0.0
  0
LINE
  5
17D
330
179
100
AcDbEntity
  8
0
 62
     7
100
AcDbLine
 10
1.216747628457345
 20
1.561271929824558
 30
0.0
 11
0.3186686701277044
 21
1.561271929824558
 31
0.0
  0
LINE
  5
17E
330
179
100
AcDbEntity
  8
0
 62
     7
100
AcDbLine
 10
0.4436686701277044
 20
2.001271929824558
 30
0.0
 11
0.4436686701277044
 21
2.501271929824558
 31
0.0
  0
LINE
  5
17F
330
179
100
AcDbEntity
  8
0
 62
     7
100
AcDbLine
 10
0.4436686701277044
 20
1.561271929824558
 30
0.0
 11
0.4436686701277044
 21
1.061271929824558
 31
0.0
  0
SOLID
  5
180
330
179
100
AcDbEntity
  8
0
 62
     7
100
AcDbTrace
 10
0.4436686701277044
 20
2.001271929824558
 30
0.0
 11
0.4696686701277045
 21
2.157271929824558
 31
0.0
 12
0.4176686701277044
 22
2.157271929824558
 32
0.0
 13
0.4176686701277044
 23
2.157271929824558
 33
0.0
  0
SOLID
  5
181
330
179
100
AcDbEntity
  8
0
 62
     7
100
AcDbTrace
 10
0.4436686701277044
 20
1.561271929824558
 30
0.0
 11
0.4176686701277044
 21
1.405271929824558
 31
0.0
 12
0.4696686701277045
 22
1.405271929824558
 32
0.0
 13
0.4696686701277045
 23
1.405271929824558
 33
0.0
  0
POINT
  5
182
330
179
100
AcDbEntity
  8
DEFPOINTS
 62
     7
100
AcDbPoint
 10
1.235008771929821
 20
2.001271929824558
 30
0.0
  0
POINT
  5
183
330
179
100
AcDbEntity
  8
DEFPOINTS
 62
     7
100
AcDbPoint
 10
1.266747628457345
 20
1.561271929824558
 30
0.0
  0
ENDBLK
  5
25C
330
179
100
AcDbEntity
  8
0
100
AcDbBlockEnd
  0
BLOCK
  5
25D
330
186
100
AcDbEntity
  8
0
100
AcDbBlockBegin
  2
*D24
 70
     1
 10
0.0
 20
0.0
 30
0.0
  3
*D24
  1

  0
MTEXT
  5
188
330
186
100
AcDbEntity
  8
0
 62
     7
100
AcDbMText
 10
4.100804227200264
 20
2.075250872354823
 30
0.0
 40
0.1377952755905512
 41
0.0
 71
     7
 72
     1
  1
%%c
  7
SLDTEXTSTYLE0
  0
MTEXT
  5
189
330
186
100
AcDbEntity
  8
0
 62
     7
100
AcDbMText
 10
4.297441708898654
 20
2.075250872354823
 30
0.0
 40
0.1377952755905512
 41
0.0
 71
     7
 72
     1
  1
.125
  7
SLDTEXTSTYLE0
  0
LINE
  5
18A
330
186
100
AcDbEntity
  8
0
 62
     7
100
AcDbLine
 10
3.557061987355658
 20
1.830464404658917
 30
0.0
 11
3.788304227200265
 21
2.125520937260693
 31
0.0
  0
LINE
  5
18B
330
186
100
AcDbEntity
  8
0
 62
     7
100
AcDbLine
 10
3.788304227200265
 20
2.125520937260693
 30
0.0
 11
4.038304227200264
 21
2.125520937260693
 31
0.0
  0
SOLID
  5
18C
330
186
100
AcDbEntity
  8
0
 62
     7
100
AcDbTrace
 10
3.557061987355658
 20
1.830464404658917
 30
0.0
 11
3.673754882589639
 21
1.937210684228329
 31
0.0
 12
3.632826743527452
 22
1.969286959462625
 32
0.0
 13
3.632826743527452
 23
1.969286959462625
 33
0.0
  0
POINT
  5
18D
330
186
100
AcDbEntity
  8
DEFPOINTS
 62
     7
100
AcDbPoint
 10
3.557061987355658
 20
1.830464404658917
 30
0.0
  0
POINT
  5
18E
330
186
100
AcDbEntity
  8
DEFPOINTS
 62
     7
100
AcDbPoint
 10
3.479955556503985
 20
1.732079454990199
 30
0.0
  0
ENDBLK
  5
25E
330
186
100
AcDbEntity
  8
0
100
AcDbBlockEnd
  0
ENDSEC
  0
SECTION
  2
ENTITIES
  0
POINT
  5
91
330
1F
100
AcDbEntity
  8
0
 62
     7
100
AcDbPoint
 10
0.569
 20
0.3100000000000023
 30
0.0
  0
POINT
  5
277
330
1F
100
AcDbEntity
  8
0
 62
     7
100
AcDbPoint
 10
-0.5689999999999991
 20
0.3100000000000023
 30
0.0
  0
CIRCLE
  5
278
330
1F
100
AcDbEntity
  8
0
  6
CONTINUOUS
 62
     7
100
AcDbCircle
 10
0.6555
 20
0.2200000000000006
 30
0.0
 40
0.0625
  0
ARC
  5
94
330
1F
100
AcDbEntity
  8
0
  6
CONTINUOUS
 62
     7
100
AcDbCircle
 10
0.4390000000000001
 20
0.3100000000000023
 30
0.0
 40
0.1300000000000004
100
AcDbArc
 50
350.0000000000007
 51
90.0
  0
LINE
  5
95
330
1F
100
AcDbEntity
  8
0
  6
CONTINUOUS
 62
     7
100
AcDbLine
 10
0.5352861513640628
 20
0.1074257369033011
 30
0.0
 11
0.5670250078915879
 21
0.2874257369033
 31
0.0
  0
ARC
  5
96
330
1F
100
AcDbEntity
  8
0
  6
CONTINUOUS
 62
     7
100
AcDbCircle
 10
0.4072611434724767
 20
0.1299999999999999
 30
0.0
 40
0.1299999999999999
100
AcDbArc
 50
270.0000000000008
 51
349.9999999999998
  0
LINE
  5
279
330
1F
100
AcDbEntity
  8
0
  6
CONTINUOUS
 62
     7
100
AcDbLine
 10
-0.4072611434724762
 20
0.0
 30
0.0
 11
0.4072611434724767
 21
0.0
 31
0.0
  0
ARC
  5
27A
330
1F
100
AcDbEntity
  8
0
  6
CONTINUOUS
 62
     7
100
AcDbCircle
 10
-0.4072611434724762
 20
0.1299999999999999
 30
0.0
 40
0.1299999999999999
100
AcDbArc
 50
190.0000000000012
 51
270.0000000000008
  0
LINE
  5
27B
330
1F
100
AcDbEntity
  8
0
  6
CONTINUOUS
 62
     7
100
AcDbLine
 10
-0.5670250078915862
 20
0.2874257369033
 30
0.0
 11
-0.5352861513640621
 21
0.1074257369033011
 31
0.0
  0
ARC
  5
27C
330
1F
100
AcDbEntity
  8
0
  6
CONTINUOUS
 62
     7
100
AcDbCircle
 10
-0.4389999999999992
 20
0.3100000000000023
 30
0.0
 40
0.13
100
AcDbArc
 50
90.0
 51
190.000000000001
  0
LINE
  5
27D
330
1F
100
AcDbEntity
  8
0
  6
CONTINUOUS
 62
     7
100
AcDbLine
 10
0.4390000000000001
 20
0.4400000000000022
 30
0.0
 11
-0.4389999999999992
 21
0.4400000000000022
 31
0.0
  0
CIRCLE
  5
27E
330
1F
100
AcDbEntity
  8
0
  6
CONTINUOUS
 62
     7
100
AcDbCircle
 10
-0.6555000000000002
 20
0.2200000000000006
 30
0.0
 40
0.0625000000000002
  0
ENDSEC
  0
SECTION
  2
OBJECTS
  0
DICTIONARY
  5
C
330
0
100
AcDbDictionary
  3
ACAD_COLOR
350
6C
  3
ACAD_GROUP
350
D
  3
ACAD_LAYOUT
350
1A
  3
ACAD_MATERIAL
350
6B
  3
ACAD_MLEADERSTYLE
350
2A1
  3
ACAD_MLINESTYLE
350
17
  3
ACAD_PLOTSETTINGS
350
19
  3
ACAD_SCALELIST
350
99
  3
ACAD_WIPEOUT_VARS
350
227
  3
ACDBHEADERROUNDTRIPXREC
350
280
  3
ACDBVARIABLEDICTIONARY
350
59
  3
ASE_INDEX_DICTIONARY
350
1F5
  3
DWGPROPS
350
2A6
  0
DICTIONARY
  5
27F
330
1F
100
AcDbDictionary
280
     1
  0
DICTIONARY
  5
6C
102
{ACAD_REACTORS
330
C
102
}
330
C
100
AcDbDictionary
  0
DICTIONARY
  5
D
102
{ACAD_REACTORS
330
C
102
}
330
C
100
AcDbDictionary
  0
DICTIONARY
  5
1A
102
{ACAD_REACTORS
330
C
102
}
330
C
100
AcDbDictionary
  0
DICTIONARY
  5
6B
102
{ACAD_REACTORS
330
C
102
}
330
C
100
AcDbDictionary
  0
DICTIONARY
  5
2A1
102
{ACAD_REACTORS
330
C
102
}
330
C
100
AcDbDictionary
  0
DICTIONARY
  5
17
102
{ACAD_REACTORS
330
C
102
}
330
C
100
AcDbDictionary
  3
STANDARD
350
18
  0
DICTIONARY
  5
19
102
{ACAD_REACTORS
330
C
102
}
330
C
100
AcDbDictionary
  0
DICTIONARY
  5
99
102
{ACAD_REACTORS
330
C
102
}
330
C
100
AcDbDictionary
  3
A0
350
1FB
  3
A1
350
1FC
  3
A2
350
1FD
  3
A3
350
1FE
  3
A4
350
1FF
  3
A5
350
200
  3
A6
350
201
  3
A7
350
202
  3
A8
350
203
  3
A9
350
204
  3
B0
350
205
  3
B1
350
206
  3
B2
350
207
  3
B3
350
208
  3
B4
350
209
  3
B5
350
20A
  3
B6
350
20B
  3
B7
350
20C
  3
B8
350
20D
  3
B9
350
20E
  3
C0
350
20F
  3
C1
350
210
  3
C2
350
211
  3
C3
350
212
  3
C4
350
213
  3
C5
350
214
  3
C6
350
215
  3
C7
350
216
  3
C8
350
217
  3
C9
350
218
  3
D0
350
219
  3
D1
350
21A
  3
D2
350
21B
  0
WIPEOUTVARIABLES
  5
227
102
{ACAD_REACTORS
330
C
102
}
330
C
100
AcDbWipeoutVariables
 70
     1
  0
DICTIONARY
  5
280
102
{ACAD_REACTORS
330
C
102
}
330
C
100
AcDbDictionary
  3
CEPSNTYPE
350
289
  3
COLORDICT
350
2A4
  3
DIMSTYLEDATA
350
29F
  3
FINGERPRINTGUID
350
28A
  3
HYPERLINKBASE
350
283
  3
INSUNITS
350
288
  3
LAYOUTDICT
350
285
  3
LWETCUNION
350
287
  3
MATERIALDICT
350
2A5
  3
PLOTSETDICT
350
286
  3
PSVPSCALE
350
28C
  3
PUCSBASE
350
28F
  3
PUCSORGBACK
350
295
  3
PUCSORGBOTTOM
350
291
  3
PUCSORGFRONT
350
294
  3
PUCSORGLEFT
350
292
  3
PUCSORGRIGHT
350
293
  3
PUCSORGTOP
350
290
  3
PUCSORTHOREF
350
28D
  3
PUCSORTHOVIEW
350
28E
  3
STYLESHEET
350
284
  3
TSTACKALIGN
350
281
  3
TSTACKSIZE
350
282
  3
UCSBASE
350
298
  3
UCSORGBACK
350
29E
  3
UCSORGBOTTOM
350
29A
  3
UCSORGFRONT
350
29D
  3
UCSORGLEFT
350
29B
  3
UCSORGRIGHT
350
29C
  3
UCSORGTOP
350
299
  3
UCSORTHOREF
350
296
  3
UCSORTHOVIEW
350
297
  3
VERSIONGUID
350
28B
  0
DICTIONARY
  5
59
102
{ACAD_REACTORS
330
C
102
}
330
C
100
AcDbDictionary
  3
CANNOSCALE
350
2A3
  3
DIMASSOC
350
21D
  3
HIDETEXT
350
5E
  3
XCLIPFRAME
350
2A2
  0
DICTIONARY
  5
1F5
102
{ACAD_REACTORS
330
C
102
}
330
C
100
AcDbDictionary
  3
ASEBLOCKHIERARCHYINDEXRECORD
350
1F7
  0
XRECORD
  5
2A6
102
{ACAD_REACTORS
330
C
102
}
330
C
100
AcDbXrecord
  1
DWGPROPS COOKIE
  2

  3

  4

  6

  7

  8
ccarey
  9

300
=
301
=
302
=
303
=
304
=
305
=
306
=
307
=
308
=
309
=
 40
0.0
 41
2453353.717125822
 42
2453833.675994283
  1

 90
        0
  0
MLINESTYLE
  5
18
102
{ACAD_REACTORS
330
17
102
}
330
17
100
AcDbMlineStyle
  2
STANDARD
 70
     0
  3

 62
     0
 51
90.0
 52
90.0
 71
     2
 49
0.5
 62
   256
  6
BYLAYER
 49
-0.5
 62
   256
  6
BYLAYER
  0
ACAD_PROXY_OBJECT
  5
1FB
102
{ACAD_REACTORS
330
99
102
}
330
99
100
AcDbProxyObject
 90
      499
 91
      505
 93
       41
310
903313A31580
  0
ACAD_PROXY_OBJECT
  5
1FC
102
{ACAD_REACTORS
330
99
102
}
330
99
100
AcDbProxyObject
 90
      499
 91
      505
 93
      105
310
903313A324000000000000004000
  0
ACAD_PROXY_OBJECT
  5
1FD
102
{ACAD_REACTORS
330
99
102
}
330
99
100
AcDbProxyObject
 90
      499
 91
      505
 93
      105
310
903313A344000000000000104000
  0
ACAD_PROXY_OBJECT
  5
1FE
102
{ACAD_REACTORS
330
99
102
}
330
99
100
AcDbProxyObject
 90
      499
 91
      505
 93
      105
310
903313A354000000000000144000
  0
ACAD_PROXY_OBJECT
  5
1FF
102
{ACAD_REACTORS
330
99
102
}
330
99
100
AcDbProxyObject
 90
      499
 91
      505
 93
      105
310
903313A384000000000000204000
  0
ACAD_PROXY_OBJECT
  5
200
102
{ACAD_REACTORS
330
99
102
}
330
99
100
AcDbProxyObject
 90
      499
 91
      505
 93
      113
310
904313A31304000000000000244000
  0
ACAD_PROXY_OBJECT
  5
201
102
{ACAD_REACTORS
330
99
102
}
330
99
100
AcDbProxyObject
 90
      499
 91
      505
 93
      113
310
904313A31364000000000000304000
  0
ACAD_PROXY_OBJECT
  5
202
102
{ACAD_REACTORS
330
99
102
}
330
99
100
AcDbProxyObject
 90
      499
 91
      505
 93
      113
310
904313A32304000000000000344000
  0
ACAD_PROXY_OBJECT
  5
203
102
{ACAD_REACTORS
330
99
102
}
330
99
100
AcDbProxyObject
 90
      499
 91
      505
 93
      113
310
904313A333040000000000003E4000
  0
ACAD_PROXY_OBJECT
  5
204
102
{ACAD_REACTORS
330
99
102
}
330
99
100
AcDbProxyObject
 90
      499
 91
      505
 93
      113
310
904313A34304000000000000444000
  0
ACAD_PROXY_OBJECT
  5
205
102
{ACAD_REACTORS
330
99
102
}
330
99
100
AcDbProxyObject
 90
      499
 91
      505
 93
      113
310
904313A35304000000000000494000
  0
ACAD_PROXY_OBJECT
  5
206
102
{ACAD_REACTORS
330
99
102
}
330
99
100
AcDbProxyObject
 90
      499
 91
      505
 93
      121
310
905313A3130304000000000000594000
  0
ACAD_PROXY_OBJECT
  5
207
102
{ACAD_REACTORS
330
99
102
}
330
99
100
AcDbProxyObject
 90
      499
 91
      505
 93
      105
310
903323A310000000000000010100
  0
ACAD_PROXY_OBJECT
  5
208
102
{ACAD_REACTORS
330
99
102
}
330
99
100
AcDbProxyObject
 90
      499
 91
      505
 93
      105
310
903343A310000000000000410100
  0
ACAD_PROXY_OBJECT
  5
209
102
{ACAD_REACTORS
330
99
102
}
330
99
100
AcDbProxyObject
 90
      499
 91
      505
 93
      105
310
903383A310000000000000810100
  0
ACAD_PROXY_OBJECT
  5
20A
102
{ACAD_REACTORS
330
99
102
}
330
99
100
AcDbProxyObject
 90
      499
 91
      505
 93
      113
310
90431303A310000000000000910100
  0
ACAD_PROXY_OBJECT
  5
20B
102
{ACAD_REACTORS
330
99
102
}
330
99
100
AcDbProxyObject
 90
      499
 91
      505
 93
      121
310
9053130303A310000000000001650100
  0
ACAD_PROXY_OBJECT
  5
20C
102
{ACAD_REACTORS
330
99
102
}
330
99
100
AcDbProxyObject
 90
      499
 91
      505
 93
      257
310
90E312F31323822203D2031272D3022000000000000200FC000000000000284000
  0
ACAD_PROXY_OBJECT
  5
20D
102
{ACAD_REACTORS
330
99
102
}
330
99
100
AcDbProxyObject
 90
      499
 91
      505
 93
      249
310
90D312F363422203D2031272D3022000000000000240FC000000000000284000
  0
ACAD_PROXY_OBJECT
  5
20E
102
{ACAD_REACTORS
330
99
102
}
330
99
100
AcDbProxyObject
 90
      499
 91
      505
 93
      249
310
90D312F333222203D2031272D3022000000000000280FC000000000000284000
  0
ACAD_PROXY_OBJECT
  5
20F
102
{ACAD_REACTORS
330
99
102
}
330
99
100
AcDbProxyObject
 90
      499
 91
      505
 93
      249
310
90D312F313622203D2031272D30220000000000002C0FC000000000000284000
  0
ACAD_PROXY_OBJECT
  5
210
102
{ACAD_REACTORS
330
99
102
}
330
99
100
AcDbProxyObject
 90
      499
 91
      505
 93
      249
310
90D332F333222203D2031272D30220000000000002E0FC000000000000284000
  0
ACAD_PROXY_OBJECT
  5
211
102
{ACAD_REACTORS
330
99
102
}
330
99
100
AcDbProxyObject
 90
      499
 91
      505
 93
      241
310
90C312F3822203D2031272D3022000000000000300FC000000000000284000
  0
ACAD_PROXY_OBJECT
  5
212
102
{ACAD_REACTORS
330
99
102
}
330
99
100
AcDbProxyObject
 90
      499
 91
      505
 93
      249
310
90D332F313622203D2031272D3022000000000000320FC000000000000284000
  0
ACAD_PROXY_OBJECT
  5
213
102
{ACAD_REACTORS
330
99
102
}
330
99
100
AcDbProxyObject
 90
      499
 91
      505
 93
      241
310
90C312F3422203D2031272D3022000000000000340FC000000000000284000
  0
ACAD_PROXY_OBJECT
  5
214
102
{ACAD_REACTORS
330
99
102
}
330
99
100
AcDbProxyObject
 90
      499
 91
      505
 93
      241
310
90C332F3822203D2031272D3022000000000000360FC000000000000284000
  0
ACAD_PROXY_OBJECT
  5
215
102
{ACAD_REACTORS
330
99
102
}
330
99
100
AcDbProxyObject
 90
      499
 91
      505
 93
      241
310
90C312F3222203D2031272D3022000000000000380FC000000000000284000
  0
ACAD_PROXY_OBJECT
  5
216
102
{ACAD_REACTORS
330
99
102
}
330
99
100
AcDbProxyObject
 90
      499
 91
      505
 93
      241
310
90C332F3422203D2031272D30220000000000003A0FC000000000000284000
  0
ACAD_PROXY_OBJECT
  5
217
102
{ACAD_REACTORS
330
99
102
}
330
99
100
AcDbProxyObject
 90
      499
 91
      505
 93
      161
310
90A3122203D2031272D30224000000000000284000
  0
ACAD_PROXY_OBJECT
  5
218
102
{ACAD_REACTORS
330
99
102
}
330
99
100
AcDbProxyObject
 90
      499
 91
      505
 93
      257
310
90E312D312F3222203D2031272D30220000000000003E0FC000000000000284000
  0
ACAD_PROXY_OBJECT
  5
219
102
{ACAD_REACTORS
330
99
102
}
330
99
100
AcDbProxyObject
 90
      499
 91
      505
 93
      225
310
90A3322203D2031272D302200000000000002100000000000000284000
  0
ACAD_PROXY_OBJECT
  5
21A
102
{ACAD_REACTORS
330
99
102
}
330
99
100
AcDbProxyObject
 90
      499
 91
      505
 93
      225
310
90A3622203D2031272D302200000000000006100000000000000284000
  0
ACAD_PROXY_OBJECT
  5
21B
102
{ACAD_REACTORS
330
99
102
}
330
99
100
AcDbProxyObject
 90
      499
 91
      505
 93
      249
310
90D31272D3022203D2031272D30220000000000000A100000000000000284000
  0
XRECORD
  5
289
102
{ACAD_REACTORS
330
280
102
}
330
280
100
AcDbXrecord
 90
        0
  0
XRECORD
  5
2A4
102
{ACAD_REACTORS
330
280
102
}
330
280
100
AcDbXrecord
340
6C
  0
XRECORD
  5
29F
102
{ACAD_REACTORS
330
280
102
}
330
280
100
AcDbXrecord
1000
DSTYLE
1002
{
1070
    41
 40
0.156
1070
    46
 40
0.125
1070
   278
 70
     0
1070
    42
 40
0.05
1070
   147
 40
0.05
1070
   371
 70
     0
1070
   372
 70
     0
1070
   340
340
11
1070
   140
 40
0.1377952755905512
1002
}
  0
XRECORD
  5
28A
102
{ACAD_REACTORS
330
280
102
}
330
280
100
AcDbXrecord
  1

  0
XRECORD
  5
283
102
{ACAD_REACTORS
330
280
102
}
330
280
100
AcDbXrecord
  1

  0
XRECORD
  5
288
102
{ACAD_REACTORS
330
280
102
}
330
280
100
AcDbXrecord
 90
        0
  0
XRECORD
  5
285
102
{ACAD_REACTORS
330
280
102
}
330
280
100
AcDbXrecord
340
1A
  0
XRECORD
  5
287
102
{ACAD_REACTORS
330
280
102
}
330
280
100
AcDbXrecord
 90
    11776
  0
XRECORD
  5
2A5
102
{ACAD_REACTORS
330
280
102
}
330
280
100
AcDbXrecord
340
6B
  0
XRECORD
  5
286
102
{ACAD_REACTORS
330
280
102
}
330
280
100
AcDbXrecord
340
19
  0
XRECORD
  5
28C
102
{ACAD_REACTORS
330
280
102
}
330
280
100
AcDbXrecord
 40
0.0
  0
XRECORD
  5
28F
102
{ACAD_REACTORS
330
280
102
}
330
280
100
AcDbXrecord
340
0
  0
XRECORD
  5
295
102
{ACAD_REACTORS
330
280
102
}
330
280
100
AcDbXrecord
 10
0.0
 20
0.0
 30
0.0
  0
XRECORD
  5
291
102
{ACAD_REACTORS
330
280
102
}
330
280
100
AcDbXrecord
 10
0.0
 20
0.0
 30
0.0
  0
XRECORD
  5
294
102
{ACAD_REACTORS
330
280
102
}
330
280
100
AcDbXrecord
 10
0.0
 20
0.0
 30
0.0
  0
XRECORD
  5
292
102
{ACAD_REACTORS
330
280
102
}
330
280
100
AcDbXrecord
 10
0.0
 20
0.0
 30
0.0
  0
XRECORD
  5
293
102
{ACAD_REACTORS
330
280
102
}
330
280
100
AcDbXrecord
 10
0.0
 20
0.0
 30
0.0
  0
XRECORD
  5
290
102
{ACAD_REACTORS
330
280
102
}
330
280
100
AcDbXrecord
 10
0.0
 20
0.0
 30
0.0
  0
XRECORD
  5
28D
102
{ACAD_REACTORS
330
280
102
}
330
280
100
AcDbXrecord
340
0
  0
XRECORD
  5
28E
102
{ACAD_REACTORS
330
280
102
}
330
280
100
AcDbXrecord
 70
     0
  0
XRECORD
  5
284
102
{ACAD_REACTORS
330
280
102
}
330
280
100
AcDbXrecord
  1

  0
XRECORD
  5
281
102
{ACAD_REACTORS
330
280
102
}
330
280
100
AcDbXrecord
 90
        1
  0
XRECORD
  5
282
102
{ACAD_REACTORS
330
280
102
}
330
280
100
AcDbXrecord
 90
       70
  0
XRECORD
  5
298
102
{ACAD_REACTORS
330
280
102
}
330
280
100
AcDbXrecord
340
0
  0
XRECORD
  5
29E
102
{ACAD_REACTORS
330
280
102
}
330
280
100
AcDbXrecord
 10
0.0
 20
0.0
 30
0.0
  0
XRECORD
  5
29A
102
{ACAD_REACTORS
330
280
102
}
330
280
100
AcDbXrecord
 10
0.0
 20
0.0
 30
0.0
  0
XRECORD
  5
29D
102
{ACAD_REACTORS
330
280
102
}
330
280
100
AcDbXrecord
 10
0.0
 20
0.0
 30
0.0
  0
XRECORD
  5
29B
102
{ACAD_REACTORS
330
280
102
}
330
280
100
AcDbXrecord
 10
0.0
 20
0.0
 30
0.0
  0
XRECORD
  5
29C
102
{ACAD_REACTORS
330
280
102
}
330
280
100
AcDbXrecord
 10
0.0
 20
0.0
 30
0.0
  0
XRECORD
  5
299
102
{ACAD_REACTORS
330
280
102
}
330
280
100
AcDbXrecord
 10
0.0
 20
0.0
 30
0.0
  0
XRECORD
  5
296
102
{ACAD_REACTORS
330
280
102
}
330
280
100
AcDbXrecord
340
0
  0
XRECORD
  5
297
102
{ACAD_REACTORS
330
280
102
}
330
280
100
AcDbXrecord
 70
     0
  0
XRECORD
  5
28B
102
{ACAD_REACTORS
330
280
102
}
330
280
100
AcDbXrecord
  1
{1D7E0E2B-8FA3-478C-AE3F-077FBCD32EBF}
  0
DICTIONARYVAR
  5
2A3
102
{ACAD_REACTORS
330
59
102
}
330
59
100
DictionaryVariables
280
     0
  1
1:1
  0
DICTIONARYVAR
  5
21D
102
{ACAD_REACTORS
330
59
102
}
330
59
100
DictionaryVariables
280
     0
  1
1
  0
DICTIONARYVAR
  5
5E
102
{ACAD_REACTORS
330
59
102
}
330
59
100
DictionaryVariables
280
     0
  1
1
  0
DICTIONARYVAR
  5
2A2
102
{ACAD_REACTORS
330
59
102
}
330
59
100
DictionaryVariables
280
     0
  1
0
  0
XRECORD
  5
1F7
102
{ACAD_REACTORS
330
1F5
102
}
330
1F5
100
AcDbXrecord
  0
ENDSEC
  0
EOF
