  0
SECTION
  2
HEADER
  9
$ACADVER
  1
AC1012
  9
$DWGCODEPAGE
  3
ansi_1252
  9
$INSUNITS
  1

  9
$INSBASE
 10
0.0
 20
0.0
 30
0.0
  9
$EXTMIN
 10
-1000.0
 20
-1000.0
 30
0.0
  9
$EXTMAX
 10
1000.0
 20
1000.0
 30
0.0
  9
$LIMMIN
 10
0.0
 20
0.0
  9
$LIMMAX
 10
0.0
 20
0.0
  9
$ORTHOMODE
 70
     0
  9
$REGENMODE
 70
     1
  9
$FILLMODE
 70
     1
  9
$QTEXTMODE
 70
     0
  9
$MIRRTEXT
 70
     1
  9
$DRAGMODE
 70
     2
  9
$LTSCALE
 40
1.0
  9
$OSMODE
 70
    37
  9
$ATTMODE
 70
     1
  9
$TEXTSIZE
 40
0.1377952756
  9
$TRACEWID
 40
0.05
  9
$TEXTSTYLE
  7
STANDARD
  9
$CLAYER
  8
0
  9
$CELTYPE
  6
BYLAYER
  9
$CECOLOR
 62
   256
  9
$CELTSCALE
 40
1.0
  9
$DELOBJ
 70
     1
  9
$DISPSILH
 70
     0
  9
$DIMSCALE
 40
1.0
  9
$DIMASZ
 40
0.2362204724
  9
$DIMEXO
 40
0.0393700787
  9
$DIMDLI
 40
0.38
  9
$DIMRND
 40
0.0
  9
$DIMDLE
 40
0.0
  9
$DIMEXE
 40
0.0393700787
  9
$DIMTP
 40
0.0
  9
$DIMTM
 40
0.0
  9
$DIMTXT
 40
0.1377952756
  9
$DIMCEN
 40
0.09
  9
$DIMTSZ
 40
0.0
  9
$DIMTOL
 70
     0
  9
$DIMLIM
 70
     0
  9
$DIMTIH
 70
     1
  9
$DIMTOH
 70
     1
  9
$DIMSE1
 70
     0
  9
$DIMSE2
 70
     0
  9
$DIMTAD
 70
     0
  9
$DIMZIN
 70
     1
  9
$DIMBLK
  1

  9
$DIMASO
 70
     1
  9
$DIMSHO
 70
     1
  9
$DIMPOST
  1

  9
$DIMAPOST
  1

  9
$DIMALT
 70
     0
  9
$DIMALTD
 70
     2
  9
$DIMALTF
 40
25.4
  9
$DIMLFAC
 40
1.0
  9
$DIMTOFL
 70
     0
  9
$DIMTVP
 40
0.0
  9
$DIMTIX
 70
     0
  9
$DIMSOXD
 70
     0
  9
$DIMSAH
 70
     0
  9
$DIMBLK1
  1

  9
$DIMBLK2
  1

  9
$DIMSTYLE
  2
STANDARD
  9
$DIMCLRD
 70
     0
  9
$DIMCLRE
 70
     0
  9
$DIMCLRT
 70
     0
  9
$DIMTFAC
 40
1.0
  9
$DIMGAP
 40
0.06
  9
$DIMJUST
 70
     0
  9
$DIMSD1
 70
     0
  9
$DIMSD2
 70
     0
  9
$DIMTOLJ
 70
     1
  9
$DIMTZIN
 70
     1
  9
$DIMALTZ
 70
     0
  9
$DIMALTTZ
 70
     0
  9
$DIMFIT
 70
     3
  9
$DIMUPT
 70
     0
  9
$DIMUNIT
 70
     2
  9
$DIMDEC
 70
     4
  9
$DIMTDEC
 70
     4
  9
$DIMALTU
 70
     2
  9
$DIMALTTD
 70
     2
  9
$DIMTXSTY
  7
STANDARD
  9
$DIMAUNIT
 70
     0
  9
$LUNITS
 70
     2
  9
$LUPREC
 70
     4
  9
$SKETCHINC
 40
0.1
  9
$FILLETRAD
 40
0.5
  9
$AUNITS
 70
     0
  9
$AUPREC
 70
     0
  9
$MENU
  1
.
  9
$ELEVATION
 40
0.0
  9
$PELEVATION
 40
0.0
  9
$THICKNESS
 40
0.0
  9
$LIMCHECK
 70
     0
  9
$CHAMFERA
 40
0.5
  9
$CHAMFERB
 40
0.5
  9
$CHAMFERC
 40
1.0
  9
$CHAMFERD
 40
0.0
  9
$SKPOLY
 70
     0
  9
$TDCREATE
 40
2457059.4862175
  9
$TDUPDATE
 40
2457059.486217511
  9
$TDINDWG
 40
0.0000000116
  9
$TDUSRTIMER
 40
0.0000000116
  9
$USRTIMER
 70
     1
  9
$ANGBASE
 50
0.0
  9
$ANGDIR
 70
     0
  9
$PDMODE
 70
     0
  9
$PDSIZE
 40
-1.0
  9
$PLINEWID
 40
0.0
  9
$COORDS
 70
     1
  9
$SPLFRAME
 70
     0
  9
$SPLINETYPE
 70
     6
  9
$SPLINESEGS
 70
     8
  9
$ATTDIA
 70
     0
  9
$ATTREQ
 70
     1
  9
$HANDLING
 70
     1
  9
$HANDSEED
  5
48
  9
$SURFTAB1
 70
     6
  9
$SURFTAB2
 70
     6
  9
$SURFTYPE
 70
     6
  9
$SURFU
 70
     6
  9
$SURFV
 70
     6
  9
$UCSNAME
  2

  9
$UCSORG
 10
0.0
 20
0.0
 30
0.0
  9
$UCSXDIR
 10
1.0
 20
0.0
 30
0.0
  9
$UCSYDIR
 10
0.0
 20
1.0
 30
0.0
  9
$PUCSNAME
  2

  9
$PUCSORG
 10
0.0
 20
0.0
 30
0.0
  9
$PUCSXDIR
 10
1.0
 20
0.0
 30
0.0
  9
$PUCSYDIR
 10
0.0
 20
1.0
 30
0.0
  9
$USERI1
 70
     0
  9
$USERI2
 70
     0
  9
$USERI3
 70
     0
  9
$USERI4
 70
     0
  9
$USERI5
 70
     0
  9
$USERR1
 40
0.0
  9
$USERR2
 40
0.0
  9
$USERR3
 40
0.0
  9
$USERR4
 40
0.0
  9
$USERR5
 40
0.0
  9
$WORLDVIEW
 70
     1
  9
$SHADEDGE
 70
     3
  9
$SHADEDIF
 70
    70
  9
$TILEMODE
 70
     1
  9
$MAXACTVP
 70
    64
  9
$PINSBASE
 10
0.0
 20
0.0
 30
0.0
  9
$PLIMCHECK
 70
     0
  9
$PEXTMIN
 10
1.0000000000E+20
 20
1.0000000000E+20
 30
1.0000000000E+20
  9
$PEXTMAX
 10
-1.0000000000E+20
 20
-1.0000000000E+20
 30
-1.0000000000E+20
  9
$PLIMMIN
 10
0.0
 20
0.0
  9
$PLIMMAX
 10
12.0
 20
9.0
  9
$UNITMODE
 70
     0
  9
$VISRETAIN
 70
     1
  9
$PLINEGEN
 70
     0
  9
$PSLTSCALE
 70
     1
  9
$TREEDEPTH
 70
  3020
  9
$PICKSTYLE
 70
     1
  9
$CMLSTYLE
  2
STANDARD
  9
$CMLJUST
 70
     0
  9
$CMLSCALE
 40
1.0
  9
$SAVEIMAGES
 70
     1
  0
ENDSEC
  0
SECTION
  2
CLASSES
  0
CLASS
  1
ACDBDICTIONARYWDFLT
  2
AcDbDictionaryWithDefault
  3
ObjectDBX Classes
 90
    32768
280
     0
281
     0
  0
CLASS
  1
XRECORD
  2
AcDbXrecord
  3
AutoCAD 2000
 90
    32768
280
     0
281
     0
  0
CLASS
  1
LWPOLYLINE
  2
AcDbPolyline
  3
AutoCAD 2000
 90
    32768
280
     0
281
     1
  0
CLASS
  1
HATCH
  2
AcDbHatch
  3
AutoCAD 2000
 90
    32768
280
     0
281
     1
  0
CLASS
  1
ACDBPLACEHOLDER
  2
AcDbPlaceHolder
  3
ObjectDBX Classes
 90
        0
280
     0
281
     0
  0
CLASS
  1
LAYOUT
  2
AcDbLayout
  3
ObjectDBX Classes
 90
        0
280
     0
281
     0
  0
ENDSEC
  0
SECTION
  2
TABLES
  0
TABLE
  2
VPORT
  5
8
330
0
100
AcDbSymbolTable
 70
     1
  0
VPORT
  5
29
330
8
100
AcDbSymbolTableRecord
100
AcDbViewportTableRecord
  2
*ACTIVE
 70
     0
 10
0.0
 20
0.0
 11
1.0
 21
1.0
 12
8.2677165354
 22
5.8464566929
 13
0.0
 23
0.0
 14
0.5
 24
0.5
 15
0.5
 25
0.5
 16
0.0
 26
0.0
 36
1.0
 17
0.0
 27
0.0
 37
0.0
 40
11.6929133858
 41
1.4141414141
 42
50.0
 43
0.0
 44
0.0
 50
0.0
 51
0.0
 71
     0
 72
  2000
 73
     1
 74
     3
 75
     0
 76
     0
 77
     0
 78
     0
  0
ENDTAB
  0
TABLE
  2
LTYPE
  5
5
330
0
100
AcDbSymbolTable
 70
     6
  0
LTYPE
  5
14
330
5
100
AcDbSymbolTableRecord
100
AcDbLinetypeTableRecord
  2
BYBLOCK
 70
     0
  3

 72
    65
 73
     0
 40
0.0
  0
LTYPE
  5
15
330
5
100
AcDbSymbolTableRecord
100
AcDbLinetypeTableRecord
  2
BYLAYER
 70
     0
  3

 72
    65
 73
     0
 40
0.0
  0
LTYPE
  5
16
330
5
100
AcDbSymbolTableRecord
100
AcDbLinetypeTableRecord
  2
CONTINUOUS
 70
     0
  3
Solid line
 72
    65
 73
     0
 40
0.0
  0
LTYPE
  5
2A
330
5
100
AcDbSymbolTableRecord
100
AcDbLinetypeTableRecord
  2
HIDDEN
 70
     0
  3
Hidden __ __ __ __ __ __ __ __ __ __ __ __ __ __
 72
    65
 73
     2
 40
0.075
 49
0.05
 74
     0
 49
-0.025
 74
     0
  0
LTYPE
  5
2B
330
5
100
AcDbSymbolTableRecord
100
AcDbLinetypeTableRecord
  2
PHANTOM
 70
     0
  3
Phantom ______  __  __  ______  __  __  ______
 72
    65
 73
     6
 40
0.5
 49
0.25
 74
     0
 49
-0.05
 74
     0
 49
0.05
 74
     0
 49
-0.05
 74
     0
 49
0.05
 74
     0
 49
-0.05
 74
     0
  0
LTYPE
  5
2C
330
5
100
AcDbSymbolTableRecord
100
AcDbLinetypeTableRecord
  2
CENTER
 70
     0
  3
Center ____ _ ____ _ ____ _ ____ _ ____ _ ____
 72
    65
 73
     4
 40
0.4
 49
0.25
 74
     0
 49
-0.05
 74
     0
 49
0.05
 74
     0
 49
-0.05
 74
     0
  0
LTYPE
  5
2D
330
5
100
AcDbSymbolTableRecord
100
AcDbLinetypeTableRecord
  2
CENTERX2
 70
     0
  3
Center (2x) ________  __  ________  __  _____
 72
    65
 73
     4
 40
0.8
 49
0.5
 74
     0
 49
-0.1
 74
     0
 49
0.1
 74
     0
 49
-0.1
 74
     0
  0
LTYPE
  5
2E
330
5
100
AcDbSymbolTableRecord
100
AcDbLinetypeTableRecord
  2
DOT2
 70
     0
  3
Dot (.5x) ........................................
 72
    65
 73
     2
 40
0.025
 49
0.0
 74
     0
 49
-0.025
 74
     0
  0
ENDTAB
  0
TABLE
  2
LAYER
  5
2
330
0
100
AcDbSymbolTable
 70
     2
  0
LAYER
  5
10
330
2
100
AcDbSymbolTableRecord
100
AcDbLayerTableRecord
  2
0
 70
     0
 62
     7
  6
CONTINUOUS
  0
LAYER
  5
2F
330
2
100
AcDbSymbolTableRecord
100
AcDbLayerTableRecord
  2
GRAIN DIRECTION
 70
     0
 62
   2
  6
CONTINUOUS
  0
ENDTAB
  0
TABLE
  2
STYLE
  5
3
330
0
100
AcDbSymbolTable
 70
     1
  0
STYLE
  5
11
330
3
100
AcDbSymbolTableRecord
100
AcDbTextStyleTableRecord
  2
STANDARD
 70
     0
 40
0.0
 41
1.0
 50
0.0
 71
     0
 42
0.2
  3
txt
  4

  0
ENDTAB
  0
TABLE
  2
VIEW
  5
6
330
0
100
AcDbSymbolTable
 70
     0
  0
ENDTAB
  0
TABLE
  2
UCS
  5
7
330
0
100
AcDbSymbolTable
 70
     0
  0
ENDTAB
  0
TABLE
  2
APPID
  5
9
330
0
100
AcDbSymbolTable
 70
     1
  0
APPID
  5
12
330
9
100
AcDbSymbolTableRecord
100
AcDbRegAppTableRecord
  2
ACAD
 70
     0
  0
ENDTAB
  0
TABLE
  2
DIMSTYLE
  5
A
330
0
100
AcDbSymbolTable
 70
     1
  0
DIMSTYLE
105
27
330
A
100
AcDbSymbolTableRecord
100
AcDbDimStyleTableRecord
  2
STANDARD
 70
     0
  3

  4

  5

  6

  7

 40
1.0
 41
0.18
 42
0.0625
 43
0.38
 44
0.18
 45
0.0
 46
0.0
 47
0.0
 48
0.0
140
0.18
141
0.09
142
0.0
143
25.4
144
1.0
145
0.0
146
1.0
147
0.09
 71
     0
 72
     0
 73
     1
 74
     1
 75
     0
 76
     0
 77
     0
 78
     0
170
     0
171
     2
172
     0
173
     0
174
     0
175
     0
176
     0
177
     0
178
     0
270
     2
271
     4
272
     4
273
     2
274
     2
340
11
275
     0
280
     0
281
     0
282
     0
283
     1
284
     0
285
     0
286
     0
287
     3
288
     0
  0
ENDTAB
  0
TABLE
  2
BLOCK_RECORD
  5
1
330
0
100
AcDbSymbolTable
 70
     1
  0
BLOCK_RECORD
  5
1F
330
1
100
AcDbSymbolTableRecord
100
AcDbBlockTableRecord
  2
*MODEL_SPACE
  0
BLOCK_RECORD
  5
1B
330
1
100
AcDbSymbolTableRecord
100
AcDbBlockTableRecord
  2
*PAPER_SPACE
  0
ENDTAB
  0
ENDSEC
  0
SECTION
  2
BLOCKS
  0
BLOCK
  5
20
330
1F
100
AcDbEntity
  8
0
100
AcDbBlockBegin
  2
*MODEL_SPACE
 70
     0
 71
     0
 10
0.0
 20
0.0
 30
0.0
  3
*MODEL_SPACE
  1

  0
ENDBLK
  5
21
330
1F
100
AcDbEntity
  8
0
100
AcDbBlockEnd
  0
BLOCK
  5
1C
330
1B
100
AcDbEntity
 67
     1
  8
0
100
AcDbBlockBegin
  2
*PAPER_SPACE
 70
     0
 71
     0
 10
0.0
 20
0.0
 30
0.0
  3
*PAPER_SPACE
  1

  0
ENDBLK
  5
1D
330
1B
100
AcDbEntity
 67
     1
  8
0
100
AcDbBlockEnd
  0
ENDSEC
  0
SECTION
  2
ENTITIES
  0
LINE
  5
4a3bbec2
330
1F
  8
Layer
100
AcDbEntity
  6
CONTINUOUS
100
AcDbLine
 10
-6.858047241050707
 20
-0.5079999999999991
 30
0.0
 11
-6.640497246796513
 21
-0.5079999999999991
 31
0.0
  0
ARC
  5
44afa8c2
330
1F
  8
Layer
100
AcDbEntity
  6
CONTINUOUS
100
AcDbCircle
 10
-6.7492722439236115
 20
-0.3509999999999983
 30
0.0
 40
0.1910000000000013
100
AcDbArc
 50
-55.28445198833635
 51
-24.35681541027565
  0
ARC
  5
4d994353
330
1F
  8
Layer
100
AcDbEntity
  6
CONTINUOUS
100
AcDbCircle
 10
-6.7492722439236115
 20
-0.35099999999999887
 30
0.0
 40
0.19100000000000136
100
AcDbArc
 50
-24.356815410275498
 51
-8.326059375558875E-14
  0
ARC
  5
bb4aebe0
330
1F
  8
Layer
100
AcDbEntity
  6
CONTINUOUS
100
AcDbCircle
 10
-6.7492722439236115
 20
-0.3509999999999993
 30
0.0
 40
0.19100000000000106
100
AcDbArc
 50
4.9956356253353246E-14
 51
24.35681541027547
  0
ARC
  5
245a32b9
330
1F
  8
Layer
100
AcDbEntity
  6
CONTINUOUS
100
AcDbCircle
 10
-6.749272243923611
 20
-0.35099999999999937
 30
0.0
 40
0.1910000000000002
100
AcDbArc
 50
24.356815410275594
 51
89.99999999999973
  0
ARC
  5
a617548e
330
1F
  8
Layer
100
AcDbEntity
  6
CONTINUOUS
100
AcDbCircle
 10
-6.74927224392361
 20
-0.3509999999999992
 30
0.0
 40
0.1910000000000001
100
AcDbArc
 50
90.0
 51
155.6431845897245
  0
ARC
  5
e8dea713
330
1F
  8
Layer
100
AcDbEntity
  6
CONTINUOUS
100
AcDbCircle
 10
-6.74927224392361
 20
-0.35099999999999915
 30
0.0
 40
0.19100000000000023
100
AcDbArc
 50
155.6431845897245
 51
-155.6431845897245
  0
ARC
  5
67c9d0f2
330
1F
  8
Layer
100
AcDbEntity
  6
CONTINUOUS
100
AcDbCircle
 10
-6.74927224392361
 20
-0.350999999999999
 30
0.0
 40
0.19100000000000034
100
AcDbArc
 50
-155.64318458972446
 51
-124.71554801166356
  0
LINE
  5
a3650629
330
1F
  8
Layer
100
AcDbEntity
  6
CONTINUOUS
100
AcDbLine
 10
-5.858047241050707
 20
-0.5079999999999992
 30
0.0
 11
-5.640497246796513
 21
-0.5079999999999992
 31
0.0
  0
ARC
  5
37ab5113
330
1F
  8
Layer
100
AcDbEntity
  6
CONTINUOUS
100
AcDbCircle
 10
-5.7492722439236115
 20
-0.3509999999999984
 30
0.0
 40
0.1910000000000013
100
AcDbArc
 50
-55.28445198833635
 51
-24.35681541027565
  0
ARC
  5
bcfb70a7
330
1F
  8
Layer
100
AcDbEntity
  6
CONTINUOUS
100
AcDbCircle
 10
-5.7492722439236115
 20
-0.350999999999999
 30
0.0
 40
0.19100000000000136
100
AcDbArc
 50
-24.356815410275498
 51
-8.326059375558875E-14
  0
ARC
  5
dca177d4
330
1F
  8
Layer
100
AcDbEntity
  6
CONTINUOUS
100
AcDbCircle
 10
-5.7492722439236115
 20
-0.3509999999999994
 30
0.0
 40
0.19100000000000106
100
AcDbArc
 50
4.9956356253353246E-14
 51
24.35681541027547
  0
ARC
  5
32a1c1b2
330
1F
  8
Layer
100
AcDbEntity
  6
CONTINUOUS
100
AcDbCircle
 10
-5.749272243923611
 20
-0.3509999999999995
 30
0.0
 40
0.1910000000000002
100
AcDbArc
 50
24.356815410275594
 51
89.99999999999973
  0
ARC
  5
eece9277
330
1F
  8
Layer
100
AcDbEntity
  6
CONTINUOUS
100
AcDbCircle
 10
-5.74927224392361
 20
-0.3509999999999993
 30
0.0
 40
0.1910000000000001
100
AcDbArc
 50
90.0
 51
155.6431845897245
  0
ARC
  5
621cee19
330
1F
  8
Layer
100
AcDbEntity
  6
CONTINUOUS
100
AcDbCircle
 10
-5.74927224392361
 20
-0.35099999999999926
 30
0.0
 40
0.19100000000000023
100
AcDbArc
 50
155.6431845897245
 51
-155.6431845897245
  0
ARC
  5
9a6cb6e1
330
1F
  8
Layer
100
AcDbEntity
  6
CONTINUOUS
100
AcDbCircle
 10
-5.74927224392361
 20
-0.3509999999999991
 30
0.0
 40
0.19100000000000034
100
AcDbArc
 50
-155.64318458972446
 51
-124.71554801166356
  0
LINE
  5
cf72b7bf
330
1F
  8
Layer
100
AcDbEntity
  6
CONTINUOUS
100
AcDbLine
 10
-4.858047241050707
 20
-0.5079999999999993
 30
0.0
 11
-4.640497246796513
 21
-0.5079999999999993
 31
0.0
  0
ARC
  5
264a4646
330
1F
  8
Layer
100
AcDbEntity
  6
CONTINUOUS
100
AcDbCircle
 10
-4.7492722439236115
 20
-0.35099999999999854
 30
0.0
 40
0.1910000000000013
100
AcDbArc
 50
-55.28445198833635
 51
-24.35681541027565
  0
ARC
  5
fc8eb3bd
330
1F
  8
Layer
100
AcDbEntity
  6
CONTINUOUS
100
AcDbCircle
 10
-4.7492722439236115
 20
-0.3509999999999991
 30
0.0
 40
0.19100000000000136
100
AcDbArc
 50
-24.356815410275498
 51
-8.326059375558875E-14
  0
ARC
  5
d6d6242a
330
1F
  8
Layer
100
AcDbEntity
  6
CONTINUOUS
100
AcDbCircle
 10
-4.7492722439236115
 20
-0.35099999999999953
 30
0.0
 40
0.19100000000000106
100
AcDbArc
 50
4.9956356253353246E-14
 51
24.35681541027547
  0
ARC
  5
938ee598
330
1F
  8
Layer
100
AcDbEntity
  6
CONTINUOUS
100
AcDbCircle
 10
-4.749272243923611
 20
-0.3509999999999996
 30
0.0
 40
0.1910000000000002
100
AcDbArc
 50
24.356815410275594
 51
89.99999999999973
  0
ARC
  5
75725f51
330
1F
  8
Layer
100
AcDbEntity
  6
CONTINUOUS
100
AcDbCircle
 10
-4.74927224392361
 20
-0.3509999999999994
 30
0.0
 40
0.1910000000000001
100
AcDbArc
 50
90.0
 51
155.6431845897245
  0
ARC
  5
5ab7da63
330
1F
  8
Layer
100
AcDbEntity
  6
CONTINUOUS
100
AcDbCircle
 10
-4.74927224392361
 20
-0.35099999999999937
 30
0.0
 40
0.19100000000000023
100
AcDbArc
 50
155.6431845897245
 51
-155.6431845897245
  0
ARC
  5
12948c9a
330
1F
  8
Layer
100
AcDbEntity
  6
CONTINUOUS
100
AcDbCircle
 10
-4.74927224392361
 20
-0.3509999999999992
 30
0.0
 40
0.19100000000000034
100
AcDbArc
 50
-155.64318458972446
 51
-124.71554801166356
  0
LINE
  5
769da0a2
330
1F
  8
Layer
100
AcDbEntity
  6
CONTINUOUS
100
AcDbLine
 10
-3.858047241050707
 20
-0.5079999999999996
 30
0.0
 11
-3.6404972467965124
 21
-0.5079999999999996
 31
0.0
  0
ARC
  5
49216c71
330
1F
  8
Layer
100
AcDbEntity
  6
CONTINUOUS
100
AcDbCircle
 10
-3.7492722439236106
 20
-0.35099999999999876
 30
0.0
 40
0.1910000000000013
100
AcDbArc
 50
-55.28445198833646
 51
-24.356815410275708
  0
ARC
  5
8284129b
330
1F
  8
Layer
100
AcDbEntity
  6
CONTINUOUS
100
AcDbCircle
 10
-3.749272243923611
 20
-0.3509999999999993
 30
0.0
 40
0.19100000000000136
100
AcDbArc
 50
-24.356815410275498
 51
-8.326059375558894E-14
  0
ARC
  5
d3e90d5f
330
1F
  8
Layer
100
AcDbEntity
  6
CONTINUOUS
100
AcDbCircle
 10
-3.7492722439236106
 20
-0.35099999999999976
 30
0.0
 40
0.19100000000000106
100
AcDbArc
 50
4.995635625335348E-14
 51
24.356815410275527
  0
ARC
  5
f28b3d4f
330
1F
  8
Layer
100
AcDbEntity
  6
CONTINUOUS
100
AcDbCircle
 10
-3.7492722439236097
 20
-0.3509999999999998
 30
0.0
 40
0.1910000000000002
100
AcDbArc
 50
24.35681541027565
 51
90.0
  0
ARC
  5
428851f9
330
1F
  8
Layer
100
AcDbEntity
  6
CONTINUOUS
100
AcDbCircle
 10
-3.7492722439236097
 20
-0.35099999999999965
 30
0.0
 40
0.1910000000000001
100
AcDbArc
 50
90.0
 51
155.64318458972443
  0
ARC
  5
d7d397fb
330
1F
  8
Layer
100
AcDbEntity
  6
CONTINUOUS
100
AcDbCircle
 10
-3.7492722439236092
 20
-0.3509999999999996
 30
0.0
 40
0.19100000000000023
100
AcDbArc
 50
155.6431845897245
 51
-155.6431845897245
  0
ARC
  5
43e31cce
330
1F
  8
Layer
100
AcDbEntity
  6
CONTINUOUS
100
AcDbCircle
 10
-3.7492722439236092
 20
-0.3509999999999994
 30
0.0
 40
0.19100000000000034
100
AcDbArc
 50
-155.64318458972446
 51
-124.71554801166356
  0
LINE
  5
3b72255a
330
1F
  8
Layer
100
AcDbEntity
  6
CONTINUOUS
100
AcDbLine
 10
-2.858047241050707
 20
-0.5079999999999997
 30
0.0
 11
-2.6404972467965124
 21
-0.5079999999999997
 31
0.0
  0
ARC
  5
e320e558
330
1F
  8
Layer
100
AcDbEntity
  6
CONTINUOUS
100
AcDbCircle
 10
-2.7492722439236106
 20
-0.35099999999999887
 30
0.0
 40
0.1910000000000013
100
AcDbArc
 50
-55.28445198833646
 51
-24.356815410275708
  0
ARC
  5
687b0e29
330
1F
  8
Layer
100
AcDbEntity
  6
CONTINUOUS
100
AcDbCircle
 10
-2.749272243923611
 20
-0.3509999999999994
 30
0.0
 40
0.19100000000000136
100
AcDbArc
 50
-24.356815410275498
 51
-8.326059375558894E-14
  0
ARC
  5
a0fda396
330
1F
  8
Layer
100
AcDbEntity
  6
CONTINUOUS
100
AcDbCircle
 10
-2.7492722439236106
 20
-0.35099999999999987
 30
0.0
 40
0.19100000000000106
100
AcDbArc
 50
4.995635625335348E-14
 51
24.356815410275527
  0
ARC
  5
10139414
330
1F
  8
Layer
100
AcDbEntity
  6
CONTINUOUS
100
AcDbCircle
 10
-2.7492722439236097
 20
-0.3509999999999999
 30
0.0
 40
0.1910000000000002
100
AcDbArc
 50
24.35681541027565
 51
90.0
  0
ARC
  5
58eafe86
330
1F
  8
Layer
100
AcDbEntity
  6
CONTINUOUS
100
AcDbCircle
 10
-2.7492722439236097
 20
-0.35099999999999976
 30
0.0
 40
0.1910000000000001
100
AcDbArc
 50
90.0
 51
155.64318458972443
  0
ARC
  5
b22d5f12
330
1F
  8
Layer
100
AcDbEntity
  6
CONTINUOUS
100
AcDbCircle
 10
-2.7492722439236092
 20
-0.3509999999999997
 30
0.0
 40
0.19100000000000023
100
AcDbArc
 50
155.6431845897245
 51
-155.6431845897245
  0
ARC
  5
717d19bc
330
1F
  8
Layer
100
AcDbEntity
  6
CONTINUOUS
100
AcDbCircle
 10
-2.7492722439236092
 20
-0.35099999999999953
 30
0.0
 40
0.19100000000000034
100
AcDbArc
 50
-155.64318458972446
 51
-124.71554801166356
  0
LINE
  5
abc13377
330
1F
  8
Layer
100
AcDbEntity
  6
CONTINUOUS
100
AcDbLine
 10
-1.858047241050707
 20
-0.5079999999999998
 30
0.0
 11
-1.6404972467965124
 21
-0.5079999999999998
 31
0.0
  0
ARC
  5
a72e69ea
330
1F
  8
Layer
100
AcDbEntity
  6
CONTINUOUS
100
AcDbCircle
 10
-1.7492722439236108
 20
-0.350999999999999
 30
0.0
 40
0.1910000000000013
100
AcDbArc
 50
-55.28445198833641
 51
-24.35681541027568
  0
ARC
  5
653eb8e8
330
1F
  8
Layer
100
AcDbEntity
  6
CONTINUOUS
100
AcDbCircle
 10
-1.749272243923611
 20
-0.35099999999999953
 30
0.0
 40
0.19100000000000136
100
AcDbArc
 50
-24.356815410275498
 51
-8.326059375558884E-14
  0
ARC
  5
e08505ec
330
1F
  8
Layer
100
AcDbEntity
  6
CONTINUOUS
100
AcDbCircle
 10
-1.7492722439236108
 20
-0.351
 30
0.0
 40
0.19100000000000106
100
AcDbArc
 50
4.995635625335336E-14
 51
24.356815410275498
  0
ARC
  5
db1f56dc
330
1F
  8
Layer
100
AcDbEntity
  6
CONTINUOUS
100
AcDbCircle
 10
-1.7492722439236097
 20
-0.35100000000000003
 30
0.0
 40
0.1910000000000002
100
AcDbArc
 50
24.35681541027565
 51
90.0
  0
ARC
  5
20e0a047
330
1F
  8
Layer
100
AcDbEntity
  6
CONTINUOUS
100
AcDbCircle
 10
-1.7492722439236097
 20
-0.35099999999999987
 30
0.0
 40
0.1910000000000001
100
AcDbArc
 50
90.0
 51
155.64318458972443
  0
ARC
  5
2c5447ef
330
1F
  8
Layer
100
AcDbEntity
  6
CONTINUOUS
100
AcDbCircle
 10
-1.7492722439236095
 20
-0.3509999999999998
 30
0.0
 40
0.19100000000000023
100
AcDbArc
 50
155.64318458972448
 51
-155.64318458972448
  0
ARC
  5
a20817e9
330
1F
  8
Layer
100
AcDbEntity
  6
CONTINUOUS
100
AcDbCircle
 10
-1.7492722439236095
 20
-0.35099999999999965
 30
0.0
 40
0.19100000000000034
100
AcDbArc
 50
-155.64318458972443
 51
-124.71554801166351
  0
LINE
  5
3a7a754e
330
1F
  8
Layer
100
AcDbEntity
  6
CONTINUOUS
100
AcDbLine
 10
-0.858047241050707
 20
-0.5079999999999999
 30
0.0
 11
-0.6404972467965124
 21
-0.5079999999999999
 31
0.0
  0
ARC
  5
a3031b36
330
1F
  8
Layer
100
AcDbEntity
  6
CONTINUOUS
100
AcDbCircle
 10
-0.7492722439236107
 20
-0.3509999999999991
 30
0.0
 40
0.1910000000000013
100
AcDbArc
 50
-55.284451988336436
 51
-24.356815410275697
  0
ARC
  5
e0049e26
330
1F
  8
Layer
100
AcDbEntity
  6
CONTINUOUS
100
AcDbCircle
 10
-0.749272243923611
 20
-0.35099999999999965
 30
0.0
 40
0.19100000000000136
100
AcDbArc
 50
-24.356815410275498
 51
-8.326059375558884E-14
  0
ARC
  5
6101895c
330
1F
  8
Layer
100
AcDbEntity
  6
CONTINUOUS
100
AcDbCircle
 10
-0.7492722439236107
 20
-0.3510000000000001
 30
0.0
 40
0.19100000000000106
100
AcDbArc
 50
4.9956356253353385E-14
 51
24.356815410275516
  0
ARC
  5
48396ef3
330
1F
  8
Layer
100
AcDbEntity
  6
CONTINUOUS
100
AcDbCircle
 10
-0.7492722439236098
 20
-0.35100000000000015
 30
0.0
 40
0.1910000000000002
100
AcDbArc
 50
24.35681541027564
 51
89.99999999999997
  0
ARC
  5
7a55bfc6
330
1F
  8
Layer
100
AcDbEntity
  6
CONTINUOUS
100
AcDbCircle
 10
-0.7492722439236097
 20
-0.351
 30
0.0
 40
0.1910000000000001
100
AcDbArc
 50
90.0
 51
155.64318458972446
  0
ARC
  5
e2067c12
330
1F
  8
Layer
100
AcDbEntity
  6
CONTINUOUS
100
AcDbCircle
 10
-0.7492722439236095
 20
-0.3509999999999999
 30
0.0
 40
0.19100000000000023
100
AcDbArc
 50
155.6431845897245
 51
-155.6431845897245
  0
ARC
  5
8a339a3d
330
1F
  8
Layer
100
AcDbEntity
  6
CONTINUOUS
100
AcDbCircle
 10
-0.7492722439236095
 20
-0.35099999999999976
 30
0.0
 40
0.19100000000000034
100
AcDbArc
 50
-155.64318458972446
 51
-124.71554801166351
  0
LINE
  5
7f0242a6
330
1F
  8
Layer
100
AcDbEntity
  6
CONTINUOUS
100
AcDbLine
 10
0.14195275894929293
 20
-0.508
 30
0.0
 11
0.35950275320348746
 21
-0.508
 31
0.0
  0
ARC
  5
d7c69d07
330
1F
  8
Layer
100
AcDbEntity
  6
CONTINUOUS
100
AcDbCircle
 10
0.2507277560763892
 20
-0.3509999999999992
 30
0.0
 40
0.1910000000000013
100
AcDbArc
 50
-55.284451988336436
 51
-24.356815410275697
  0
ARC
  5
cdf86479
330
1F
  8
Layer
100
AcDbEntity
  6
CONTINUOUS
100
AcDbCircle
 10
0.25072775607638886
 20
-0.35099999999999976
 30
0.0
 40
0.19100000000000136
100
AcDbArc
 50
-24.356815410275498
 51
-8.326059375558884E-14
  0
ARC
  5
2faba914
330
1F
  8
Layer
100
AcDbEntity
  6
CONTINUOUS
100
AcDbCircle
 10
0.2507277560763892
 20
-0.3510000000000002
 30
0.0
 40
0.19100000000000106
100
AcDbArc
 50
4.9956356253353385E-14
 51
24.356815410275516
  0
ARC
  5
d0dfc86e
330
1F
  8
Layer
100
AcDbEntity
  6
CONTINUOUS
100
AcDbCircle
 10
0.2507277560763901
 20
-0.35100000000000026
 30
0.0
 40
0.1910000000000002
100
AcDbArc
 50
24.35681541027564
 51
89.99999999999997
  0
ARC
  5
c6098b32
330
1F
  8
Layer
100
AcDbEntity
  6
CONTINUOUS
100
AcDbCircle
 10
0.25072775607639025
 20
-0.3510000000000001
 30
0.0
 40
0.1910000000000001
100
AcDbArc
 50
90.00000000000003
 51
155.64318458972446
  0
ARC
  5
04620fe8
330
1F
  8
Layer
100
AcDbEntity
  6
CONTINUOUS
100
AcDbCircle
 10
0.2507277560763904
 20
-0.35100000000000003
 30
0.0
 40
0.19100000000000023
100
AcDbArc
 50
155.64318458972448
 51
-155.64318458972448
  0
ARC
  5
9abacef1
330
1F
  8
Layer
100
AcDbEntity
  6
CONTINUOUS
100
AcDbCircle
 10
0.2507277560763905
 20
-0.35099999999999987
 30
0.0
 40
0.19100000000000034
100
AcDbArc
 50
-155.64318458972446
 51
-124.71554801166351
  0
ENDSEC
  0
SECTION
  2
OBJECTS
  0
DICTIONARY
  5
C
330
0
100
AcDbDictionary
  3
ACAD_GROUP
350
D
  3
ACAD_LAYOUT
350
1A
  3
ACAD_MLINESTYLE
350
17
  3
ACAD_PLOTSETTINGS
350
19
1001
ACAD
1000
TREAT_AS_HARD
1070
     0
  0
DICTIONARY
  5
D
102
{ACAD_REACTORS
330
C
102
}
330
C
100
AcDbDictionary
1001
ACAD
1000
TREAT_AS_HARD
1070
     0
  0
DICTIONARY
  5
1A
102
{ACAD_REACTORS
330
C
102
}
330
C
100
AcDbDictionary
1001
ACAD
1000
TREAT_AS_HARD
1070
     0
  0
DICTIONARY
  5
17
102
{ACAD_REACTORS
330
C
102
}
330
C
100
AcDbDictionary
  3
STANDARD
350
18
1001
ACAD
1000
TREAT_AS_HARD
1070
     0
  0
DICTIONARY
  5
19
102
{ACAD_REACTORS
330
C
102
}
330
C
100
AcDbDictionary
1001
ACAD
1000
TREAT_AS_HARD
1070
     0
  0
MLINESTYLE
  5
18
102
{ACAD_REACTORS
330
17
102
}
330
17
100
AcDbMlineStyle
  2
Standard
 70
     0
  3

 62
   256
 51
90.0
 52
90.0
 71
     2
 49
0.5
 62
   256
  6
BYLAYER
 49
-0.5
 62
   256
  6
BYLAYER
  0
ENDSEC
  0
EOF
