  0
SECTION
  2
HEADER
  9
$ACADVER
  1
AC1009
  9
$DWGCODEPAGE
  3
ansi_1252
  9
$INSBASE
 10
0
 20
0
 30
0
  9
$EXTMIN
 10
-1000
 20
-1000
 30
0
  9
$EXTMAX
 10
1000
 20
1000
 30
0
  9
$LIMMIN
 10
-103.73186
 20
-20.1418
  9
$LIMMAX
 10
57.24126
 20
120.8508
  9
$ORTHOMODE
 70
0
  9
$REGENMODE
 70
1
  9
$FILLMODE
 70
1
  9
$QTEXTMODE
 70
0
  9
$MIRRTEXT
 70
1
  9
$LTSCALE
 40
1
  9
$ATTMODE
 70
1
  9
$TEXTSIZE
 40
0.2
  9
$TRACEWID
 40
0.05
  9
$TEXTSTYLE
  7
Standard
  9
$CLAYER
  8
Outline
  9
$CELTYPE
  6
Continuous
  9
$CECOLOR
 62
256
  9
$DIMSCALE
 40
1
  9
$DIMASZ
 40
0.18
  9
$DIMEXO
 40
0.0625
  9
$DIMDLI
 40
0.38
  9
$DIMRND
 40
0
  9
$DIMDLE
 40
0
  9
$DIMEXE
 40
0.18
  9
$DIMTP
 40
0
  9
$DIMTM
 40
0
  9
$DIMTXT
 40
0.18
  9
$DIMCEN
 40
0.09
  9
$DIMTSZ
 40
0
  9
$DIMTOL
 70
0
  9
$DIMLIM
 70
0
  9
$DIMTIH
 70
1
  9
$DIMTOH
 70
1
  9
$DIMSE1
 70
0
  9
$DIMSE2
 70
0
  9
$DIMTAD
 70
0
  9
$DIMZIN
 70
0
  9
$DIMBLK
  1

  9
$DIMASO
 70
1
  9
$DIMSHO
 70
1
  9
$DIMPOST
  1

  9
$DIMAPOST
  1

  9
$DIMALT
 70
0
  9
$DIMALTD
 70
2
  9
$DIMALTF
 40
1
  9
$DIMLFAC
 40
1
  9
$DIMTOFL
 70
0
  9
$DIMTVP
 40
0
  9
$DIMTIX
 70
0
  9
$DIMSOXD
 70
0
  9
$DIMSAH
 70
0
  9
$DIMBLK1
  1

  9
$DIMBLK2
  1

  9
$MEASUREMENT
 70
0
  9
$INSUNITS
 70
1
  9
$DIMSTYLE
  2
STANDARD
  9
$DIMCLRD
 70
0
  9
$DIMCLRE
 70
0
  9
$DIMCLRT
 70
0
  9
$DIMTFAC
 40
1
  9
$DIMGAP
 40
0.09
  9
$LUNITS
 70
     2
  9
$MEASUREMENT
 70
     0
  9
$LUPREC
 70
4
  9
$SKETCHINC
 40
0.1
  9
$FILLETRAD
 40
0
  9
$AUNITS
 70
0
  9
$AUPREC
 70
0
  9
$MENU
  1
.
  9
$ELEVATION
 40
0
  9
$PELEVATION
 40
0
  9
$THICKNESS
 40
0
  9
$LIMCHECK
 70
0
  9
$CHAMFERA
 40
0.5
  9
$CHAMFERB
 40
0.5
  9
$SKPOLY
 70
0
  9
$TDCREATE
 40
2456054
  9
$TDUPDATE
 40
2456054
  9
$TDINDWG
 40
0
  9
$TDUSRTIMER
 40
0
  9
$USRTIMER
 70
1
  9
$ANGBASE
 50
0
  9
$ANGDIR
 70
1
  9
$PDMODE
 70
0
  9
$PDSIZE
 40
0
  9
$PLINEWID
 40
0
  9
$SPLFRAME
 70
0
  9
$SPLINETYPE
 70
6
  9
$SPLINESEGS
 70
8
  9
$HANDLING
 70
0
  9
$HANDSEED
  5
60
  9
$SURFTAB1
 70
6
  9
$SURFTAB2
 70
6
  9
$SURFTYPE
 70
6
  9
$SURFU
 70
6
  9
$SURFV
 70
6
  9
$UCSORG
 10
0
 20
0
 30
0
  9
$UCSXDIR
 10
1
 20
0
 30
0
  9
$UCSYDIR
 10
0
 20
1
 30
0
  9
$PUCSORG
 10
0
 20
0
 30
0
  9
$PUCSXDIR
 10
1
 20
0
 30
0
  9
$PUCSYDIR
 10
0
 20
1
 30
0
  9
$USERI1
 70
0
  9
$USERI2
 70
0
  9
$USERI3
 70
0
  9
$USERI4
 70
0
  9
$USERI5
 70
0
  9
$USERR1
 40
0
  9
$USERR2
 40
0
  9
$USERR3
 40
0
  9
$USERR4
 40
0
  9
$USERR5
 40
0
  9
$WORLDVIEW
 70
1
  9
$SHADEDGE
 70
3
  9
$SHADEDIF
 70
70
  9
$TILEMODE
 70
1
  9
$MAXACTVP
 70
48
  9
$PINSBASE
 10
0
 20
0
 30
0
  9
$PLIMCHECK
 70
0
  9
$PEXTMIN
 10
1E+20
 20
1E+20
 30
1E+20
  9
$PEXTMAX
 10
-1E+20
 20
-1E+20
 30
-1E+20
  9
$PLIMMAX
 10
0
 20
0
  9
$PLIMMIN
 10
0
 20
0
  9
$UNITMODE
 70
0
  9
$VISRETAIN
 70
1
  9
$PLINEGEN
 70
1
  9
$PSLTSCALE
 70
1
  9
$TREEDEPTH
 70
3020
  0
ENDSEC
  0
SECTION
  2
TABLES
  0
TABLE
  2
LTYPE
 70
7
  0
LTYPE
  2
Continuous
  3
Solid line
 70
64
 72
65
 73
0
 40
0
  0
LTYPE
  2
ByBlock
  3

 70
64
 72
65
 73
0
 40
0
  0
LTYPE
  2
ByLayer
  3

 70
64
 72
65
 73
0
 40
0
  0
LTYPE
  2
OutlineType
  3

 70
64
 72
65
 73
0
 40
0
  0
LTYPE
  2
BendingLineType
  3

 70
64
 72
65
 73
2
 40
7
 49
5
 49
-2
  0
LTYPE
  2
BendEdgeLineType
  3

 70
64
 72
65
 73
2
 40
3
 49
1
 49
-2
  0
LTYPE
  2
IllegalLineType
  3

 70
64
 72
65
 73
4
 40
6
 49
2
 49
-2
 49
0
 49
-2
  0
ENDTAB
  0
TABLE
  2
LAYER
 70
3
  0
LAYER
 70
0
  2
Outline
 62
5
  6
Continuous
  0
LAYER
 70
0
  2
BendingLines
 62
3
  6
Continuous
  0
LAYER
 70
64
  2
0
 62
7
  6
Continuous
  0
ENDTAB
  0
TABLE
  2
STYLE
 70
1
  0
STYLE
  2
Standard
 70
64
 40
0
 41
1
 50
0
 71
0
 42
0.2
  3
txt.shx
  0
ENDTAB
  0
TABLE
  2
APPID
 70
4
  0
APPID
  2
ACAD
 70
64
  0
APPID
  2
ACAD_MLEADERVER
 70
64
  0
APPID
  2
POS3000_V3_PRODUCT
 70
64
  0
APPID
  2
POS3000_V3_BENDINGLINE
 70
64
  0
ENDTAB
  0
TABLE
  2
DIMSTYLE
 70
1
  0
DIMSTYLE
  2
Standard
 70
64
  3

  4

  5

  6

  7

 40
1
 41
0.18
 42
0.0625
 43
0.38
 44
0.18
 45
0
 46
0
 47
0
 48
0
140
0.18
141
0.09
142
0
143
1
144
1
145
0
146
1
147
0.09
 71
0
 72
0
 73
1
 74
1
 75
0
 76
0
 77
0
 78
0
170
0
171
2
172
0
173
0
174
0
175
0
176
0
177
0
178
0
  0
ENDTAB
  0
ENDSEC
  0
SECTION
  2
BLOCKS
  0
BLOCK
  8
Outline
  2
*Model_Space
 70
64
 10
0
 20
0
 30
0
  3
*Model_Space
  0
ENDBLK
  8
0
  0
BLOCK
  8
Outline
 67
1
  2
*Paper_Space
 70
64
 10
0
 20
0
 30
0
  3
*Paper_Space
  0
ENDBLK
  8
0
  0
ENDSEC
  0
SECTION
  2
ENTITIES
  0
LINE
  5
012ba91f
330
1F
  8
Layer
  6
Continuous
100
AcDbLine
 10
-1.545
 20
4.695
 30
0.0
 11
-1.17
 21
4.695
 31
0.0
  0
LINE
  5
0b654fd2
330
1F
  8
Layer
  6
Continuous
100
AcDbLine
 10
-1.17
 20
4.695
 30
0.0
 11
-1.17
 21
4.38
 31
0.0
  0
LINE
  5
5db912b6
330
1F
  8
Layer
  6
Continuous
100
AcDbLine
 10
-1.17
 20
4.38
 30
0.0
 11
-1.145
 21
4.38
 31
0.0
  0
ARC
  5
cec2ddb9
330
1F
  8
Layer
  6
Continuous
100
AcDbCircle
 10
-1.144999999948997
 20
4.280000000051003
 30
0.0
 40
0.09999999994899719
100
AcDbArc
 50
-2.9222936428191334E-8
 51
90.00000002922258
  0
LINE
  5
db38bc48
330
1F
  8
Layer
  6
Continuous
100
AcDbLine
 10
-1.045
 20
4.279999999999999
 30
0.0
 11
-1.045
 21
0.7919999999999998
 31
0.0
  0
ARC
  5
c2d31a4e
330
1F
  8
Layer
  6
Continuous
100
AcDbCircle
 10
-1.1450000000063425
 20
0.7920000000063427
 30
0.0
 40
0.10000000000634256
100
AcDbArc
 50
-89.99999999636601
 51
-2.9222936428191334E-8
  0
LINE
  5
4de7e969
330
1F
  8
Layer
  6
Continuous
100
AcDbLine
 10
-1.145
 20
0.6920000000000002
 30
0.0
 11
-1.5699999999999998
 21
0.6920000000000002
 31
0.0
  0
ARC
  5
81b518ef
330
1F
  8
Layer
  6
Continuous
100
AcDbCircle
 10
-1.5699999999363086
 20
0.7920000000636915
 30
0.0
 40
0.10000000006369135
100
AcDbArc
 50
-179.99999996350758
 51
-89.99999999636601
  0
LINE
  5
d0e27a0a
330
1F
  8
Layer
  6
Continuous
100
AcDbLine
 10
-1.67
 20
0.7920000000000003
 30
0.0
 11
-1.67
 21
4.28
 31
0.0
  0
ARC
  5
c322a722
330
1F
  8
Layer
  6
Continuous
100
AcDbCircle
 10
-1.5699999999936556
 20
4.279999999993656
 30
0.0
 40
0.10000000000634446
100
AcDbArc
 50
90.00000002922258
 51
-179.99999996350758
  0
LINE
  5
3b6d0c85
330
1F
  8
Layer
  6
Continuous
100
AcDbLine
 10
-1.5699999999999998
 20
4.380000000000001
 30
0.0
 11
-1.545
 21
4.380000000000001
 31
0.0
  0
LINE
  5
d92df663
330
1F
  8
Layer
  6
Continuous
100
AcDbLine
 10
-1.545
 20
4.380000000000001
 30
0.0
 11
-1.545
 21
4.695
 31
0.0
  0
LINE
  5
d48c6e9e
330
1F
  8
Layer
  6
Continuous
100
AcDbLine
 10
-5.545
 20
4.695
 30
0.0
 11
-5.17
 21
4.695
 31
0.0
  0
LINE
  5
19361913
330
1F
  8
Layer
  6
Continuous
100
AcDbLine
 10
-5.17
 20
4.695
 30
0.0
 11
-5.17
 21
4.38
 31
0.0
  0
LINE
  5
ec07cf40
330
1F
  8
Layer
  6
Continuous
100
AcDbLine
 10
-5.17
 20
4.38
 30
0.0
 11
-5.145
 21
4.38
 31
0.0
  0
ARC
  5
1ac25605
330
1F
  8
Layer
  6
Continuous
100
AcDbCircle
 10
-5.144999999948997
 20
4.280000000051003
 30
0.0
 40
0.09999999994899719
100
AcDbArc
 50
-2.9222936428191334E-8
 51
90.00000002922258
  0
LINE
  5
ee9a19b7
330
1F
  8
Layer
  6
Continuous
100
AcDbLine
 10
-5.045
 20
4.279999999999999
 30
0.0
 11
-5.045
 21
0.7919999999999998
 31
0.0
  0
ARC
  5
b0545f12
330
1F
  8
Layer
  6
Continuous
100
AcDbCircle
 10
-5.145000000006343
 20
0.7920000000063427
 30
0.0
 40
0.10000000000634256
100
AcDbArc
 50
-89.99999999636601
 51
-2.9222936428191334E-8
  0
LINE
  5
b01d3463
330
1F
  8
Layer
  6
Continuous
100
AcDbLine
 10
-5.145
 20
0.6920000000000002
 30
0.0
 11
-5.57
 21
0.6920000000000002
 31
0.0
  0
ARC
  5
b3929699
330
1F
  8
Layer
  6
Continuous
100
AcDbCircle
 10
-5.569999999936309
 20
0.7920000000636915
 30
0.0
 40
0.10000000006369135
100
AcDbArc
 50
-179.99999996350758
 51
-89.99999999636601
  0
LINE
  5
b48185c8
330
1F
  8
Layer
  6
Continuous
100
AcDbLine
 10
-5.67
 20
0.7920000000000003
 30
0.0
 11
-5.67
 21
4.28
 31
0.0
  0
ARC
  5
613f2e5d
330
1F
  8
Layer
  6
Continuous
100
AcDbCircle
 10
-5.569999999993655
 20
4.279999999993656
 30
0.0
 40
0.10000000000634446
100
AcDbArc
 50
90.00000002922258
 51
-179.99999996350758
  0
LINE
  5
3be4a8c9
330
1F
  8
Layer
  6
Continuous
100
AcDbLine
 10
-5.57
 20
4.380000000000001
 30
0.0
 11
-5.545
 21
4.380000000000001
 31
0.0
  0
LINE
  5
71538aec
330
1F
  8
Layer
  6
Continuous
100
AcDbLine
 10
-5.545
 20
4.380000000000001
 30
0.0
 11
-5.545
 21
4.695
 31
0.0
  0
LINE
  5
04c61d82
330
1F
  8
Layer
  6
Continuous
100
AcDbLine
 10
-2.345
 20
4.695
 30
0.0
 11
-1.9700000000000002
 21
4.695
 31
0.0
  0
LINE
  5
a52f9d24
330
1F
  8
Layer
  6
Continuous
100
AcDbLine
 10
-1.9700000000000002
 20
4.695
 30
0.0
 11
-1.9700000000000002
 21
4.38
 31
0.0
  0
LINE
  5
d17462a3
330
1F
  8
Layer
  6
Continuous
100
AcDbLine
 10
-1.9700000000000002
 20
4.38
 30
0.0
 11
-1.9450000000000003
 21
4.38
 31
0.0
  0
ARC
  5
6a6b797a
330
1F
  8
Layer
  6
Continuous
100
AcDbCircle
 10
-1.9449999999489973
 20
4.280000000051003
 30
0.0
 40
0.09999999994899719
100
AcDbArc
 50
-2.9222936428191334E-8
 51
90.00000002922258
  0
LINE
  5
ad5fe6d9
330
1F
  8
Layer
  6
Continuous
100
AcDbLine
 10
-1.8450000000000002
 20
4.279999999999999
 30
0.0
 11
-1.8450000000000002
 21
0.7919999999999998
 31
0.0
  0
ARC
  5
7812e89e
330
1F
  8
Layer
  6
Continuous
100
AcDbCircle
 10
-1.9450000000063428
 20
0.7920000000063427
 30
0.0
 40
0.10000000000634256
100
AcDbArc
 50
-89.99999999636601
 51
-2.9222936428191334E-8
  0
LINE
  5
b9506d08
330
1F
  8
Layer
  6
Continuous
100
AcDbLine
 10
-1.9450000000000003
 20
0.6920000000000002
 30
0.0
 11
-2.37
 21
0.6920000000000002
 31
0.0
  0
ARC
  5
19ce83fa
330
1F
  8
Layer
  6
Continuous
100
AcDbCircle
 10
-2.369999999936309
 20
0.7920000000636915
 30
0.0
 40
0.10000000006369135
100
AcDbArc
 50
-179.99999996350758
 51
-89.99999999636601
  0
LINE
  5
78fe5834
330
1F
  8
Layer
  6
Continuous
100
AcDbLine
 10
-2.47
 20
0.7920000000000003
 30
0.0
 11
-2.47
 21
4.28
 31
0.0
  0
ARC
  5
343e8167
330
1F
  8
Layer
  6
Continuous
100
AcDbCircle
 10
-2.369999999993656
 20
4.279999999993656
 30
0.0
 40
0.10000000000634446
100
AcDbArc
 50
90.00000002922258
 51
-179.99999996350758
  0
LINE
  5
0e775f35
330
1F
  8
Layer
  6
Continuous
100
AcDbLine
 10
-2.37
 20
4.380000000000001
 30
0.0
 11
-2.345
 21
4.380000000000001
 31
0.0
  0
LINE
  5
79ae3883
330
1F
  8
Layer
  6
Continuous
100
AcDbLine
 10
-2.345
 20
4.380000000000001
 30
0.0
 11
-2.345
 21
4.695
 31
0.0
  0
LINE
  5
f34806cb
330
1F
  8
Layer
  6
Continuous
100
AcDbLine
 10
-4.745
 20
4.695
 30
0.0
 11
-4.37
 21
4.695
 31
0.0
  0
LINE
  5
62788432
330
1F
  8
Layer
  6
Continuous
100
AcDbLine
 10
-4.37
 20
4.695
 30
0.0
 11
-4.37
 21
4.38
 31
0.0
  0
LINE
  5
abfe0cc8
330
1F
  8
Layer
  6
Continuous
100
AcDbLine
 10
-4.37
 20
4.38
 30
0.0
 11
-4.345000000000001
 21
4.38
 31
0.0
  0
ARC
  5
9bd329e8
330
1F
  8
Layer
  6
Continuous
100
AcDbCircle
 10
-4.344999999948997
 20
4.280000000051003
 30
0.0
 40
0.09999999994899719
100
AcDbArc
 50
-2.9222936428191334E-8
 51
90.00000002922258
  0
LINE
  5
64fcee75
330
1F
  8
Layer
  6
Continuous
100
AcDbLine
 10
-4.245
 20
4.279999999999999
 30
0.0
 11
-4.245
 21
0.7919999999999998
 31
0.0
  0
ARC
  5
9ed46a69
330
1F
  8
Layer
  6
Continuous
100
AcDbCircle
 10
-4.345000000006342
 20
0.7920000000063427
 30
0.0
 40
0.10000000000634256
100
AcDbArc
 50
-89.99999999636601
 51
-2.9222936428191334E-8
  0
LINE
  5
99abbf1c
330
1F
  8
Layer
  6
Continuous
100
AcDbLine
 10
-4.345
 20
0.6920000000000002
 30
0.0
 11
-4.7700000000000005
 21
0.6920000000000002
 31
0.0
  0
ARC
  5
8a77c7a7
330
1F
  8
Layer
  6
Continuous
100
AcDbCircle
 10
-4.769999999936308
 20
0.7920000000636915
 30
0.0
 40
0.10000000006369135
100
AcDbArc
 50
-179.99999996350758
 51
-89.99999999636601
  0
LINE
  5
1670a4be
330
1F
  8
Layer
  6
Continuous
100
AcDbLine
 10
-4.87
 20
0.7920000000000003
 30
0.0
 11
-4.87
 21
4.28
 31
0.0
  0
ARC
  5
77dc9ed9
330
1F
  8
Layer
  6
Continuous
100
AcDbCircle
 10
-4.769999999993655
 20
4.279999999993656
 30
0.0
 40
0.10000000000634446
100
AcDbArc
 50
90.00000002922258
 51
-179.99999996350758
  0
LINE
  5
046bcaff
330
1F
  8
Layer
  6
Continuous
100
AcDbLine
 10
-4.77
 20
4.380000000000001
 30
0.0
 11
-4.745
 21
4.380000000000001
 31
0.0
  0
LINE
  5
1d5c995e
330
1F
  8
Layer
  6
Continuous
100
AcDbLine
 10
-4.745
 20
4.380000000000001
 30
0.0
 11
-4.745
 21
4.695
 31
0.0
  0
LINE
  5
0eae1e39
330
1F
  8
Layer
  6
Continuous
100
AcDbLine
 10
-0.745
 20
4.695
 30
0.0
 11
-0.37
 21
4.695
 31
0.0
  0
LINE
  5
70f06e6c
330
1F
  8
Layer
  6
Continuous
100
AcDbLine
 10
-0.37
 20
4.695
 30
0.0
 11
-0.37
 21
4.38
 31
0.0
  0
LINE
  5
0fee9e90
330
1F
  8
Layer
  6
Continuous
100
AcDbLine
 10
-0.37
 20
4.38
 30
0.0
 11
-0.3450000000000001
 21
4.38
 31
0.0
  0
ARC
  5
c550db06
330
1F
  8
Layer
  6
Continuous
100
AcDbCircle
 10
-0.34499999994899716
 20
4.280000000051003
 30
0.0
 40
0.09999999994899719
100
AcDbArc
 50
-2.9222936428191334E-8
 51
90.00000002922258
  0
LINE
  5
1402804e
330
1F
  8
Layer
  6
Continuous
100
AcDbLine
 10
-0.245
 20
4.279999999999999
 30
0.0
 11
-0.245
 21
0.7919999999999998
 31
0.0
  0
ARC
  5
73eeec9e
330
1F
  8
Layer
  6
Continuous
100
AcDbCircle
 10
-0.34500000000634257
 20
0.7920000000063427
 30
0.0
 40
0.10000000000634256
100
AcDbArc
 50
-89.99999999636601
 51
-2.9222936428191334E-8
  0
LINE
  5
87158dc0
330
1F
  8
Layer
  6
Continuous
100
AcDbLine
 10
-0.345
 20
0.6920000000000002
 30
0.0
 11
-0.77
 21
0.6920000000000002
 31
0.0
  0
ARC
  5
cc8f49e5
330
1F
  8
Layer
  6
Continuous
100
AcDbCircle
 10
-0.7699999999363086
 20
0.7920000000636915
 30
0.0
 40
0.10000000006369135
100
AcDbArc
 50
-179.99999996350758
 51
-89.99999999636601
  0
LINE
  5
14b0165c
330
1F
  8
Layer
  6
Continuous
100
AcDbLine
 10
-0.87
 20
0.7920000000000003
 30
0.0
 11
-0.87
 21
4.28
 31
0.0
  0
ARC
  5
6d056b4c
330
1F
  8
Layer
  6
Continuous
100
AcDbCircle
 10
-0.7699999999936555
 20
4.279999999993656
 30
0.0
 40
0.10000000000634446
100
AcDbArc
 50
90.00000002922258
 51
-179.99999996350758
  0
LINE
  5
1e30b7b7
330
1F
  8
Layer
  6
Continuous
100
AcDbLine
 10
-0.7699999999999999
 20
4.380000000000001
 30
0.0
 11
-0.745
 21
4.380000000000001
 31
0.0
  0
LINE
  5
5704af14
330
1F
  8
Layer
  6
Continuous
100
AcDbLine
 10
-0.745
 20
4.380000000000001
 30
0.0
 11
-0.745
 21
4.695
 31
0.0
  0
LINE
  5
11bdb35e
330
1F
  8
Layer
  6
Continuous
100
AcDbLine
 10
-3.145
 20
4.695
 30
0.0
 11
-2.77
 21
4.695
 31
0.0
  0
LINE
  5
408eb7cb
330
1F
  8
Layer
  6
Continuous
100
AcDbLine
 10
-2.77
 20
4.695
 30
0.0
 11
-2.77
 21
4.38
 31
0.0
  0
LINE
  5
d63c2850
330
1F
  8
Layer
  6
Continuous
100
AcDbLine
 10
-2.77
 20
4.38
 30
0.0
 11
-2.745
 21
4.38
 31
0.0
  0
ARC
  5
b7a896ef
330
1F
  8
Layer
  6
Continuous
100
AcDbCircle
 10
-2.7449999999489973
 20
4.280000000051003
 30
0.0
 40
0.09999999994899719
100
AcDbArc
 50
-2.9222936428191334E-8
 51
90.00000002922258
  0
LINE
  5
41ffbea9
330
1F
  8
Layer
  6
Continuous
100
AcDbLine
 10
-2.645
 20
4.279999999999999
 30
0.0
 11
-2.645
 21
0.7919999999999998
 31
0.0
  0
ARC
  5
2a7e0616
330
1F
  8
Layer
  6
Continuous
100
AcDbCircle
 10
-2.7450000000063426
 20
0.7920000000063427
 30
0.0
 40
0.10000000000634256
100
AcDbArc
 50
-89.99999999636601
 51
-2.9222936428191334E-8
  0
LINE
  5
3071018e
330
1F
  8
Layer
  6
Continuous
100
AcDbLine
 10
-2.745
 20
0.6920000000000002
 30
0.0
 11
-3.17
 21
0.6920000000000002
 31
0.0
  0
ARC
  5
0587e027
330
1F
  8
Layer
  6
Continuous
100
AcDbCircle
 10
-3.1699999999363087
 20
0.7920000000636915
 30
0.0
 40
0.10000000006369135
100
AcDbArc
 50
-179.99999996350758
 51
-89.99999999636601
  0
LINE
  5
7829ca51
330
1F
  8
Layer
  6
Continuous
100
AcDbLine
 10
-3.27
 20
0.7920000000000003
 30
0.0
 11
-3.27
 21
4.28
 31
0.0
  0
ARC
  5
030ed3e1
330
1F
  8
Layer
  6
Continuous
100
AcDbCircle
 10
-3.1699999999936557
 20
4.279999999993656
 30
0.0
 40
0.10000000000634446
100
AcDbArc
 50
90.00000002922258
 51
-179.99999996350758
  0
LINE
  5
24be8caa
330
1F
  8
Layer
  6
Continuous
100
AcDbLine
 10
-3.17
 20
4.380000000000001
 30
0.0
 11
-3.145
 21
4.380000000000001
 31
0.0
  0
LINE
  5
a171aca2
330
1F
  8
Layer
  6
Continuous
100
AcDbLine
 10
-3.145
 20
4.380000000000001
 30
0.0
 11
-3.145
 21
4.695
 31
0.0
  0
LINE
  5
d1b14cd0
330
1F
100
AcDbLine
  8
Layer
  6
Continuous
 10
-12.101000
 20
0.283000
 30
0.0
 11
-5.841000
 21
0.283000
 31
0.0
  0
LINE
  5
4e010fe7
330
1F
100
AcDbLine
  8
Layer
  6
Continuous
 10
-5.841000
 20
0.283000
 30
0.0
 11
-5.841000
 21
2.043000
 31
0.0
  0
LINE
  5
452168bc
330
1F
100
AcDbLine
  8
Layer
  6
Continuous
 10
-5.841000
 20
2.043000
 30
0.0
 11
-12.101000
 21
2.043000
 31
0.0
  0
LINE
  5
079fbe12
330
1F
100
AcDbLine
  8
Layer
  6
Continuous
 10
-12.101000
 20
2.043000
 30
0.0
 11
-12.101000
 21
0.283000
 31
0.0
  0
LINE
  5
725e4e26
330
1F
  8
Layer
  6
Continuous
100
AcDbLine
 10
-3.945
 20
4.695
 30
0.0
 11
-3.57
 21
4.695
 31
0.0
  0
LINE
  5
0124c9fa
330
1F
  8
Layer
  6
Continuous
100
AcDbLine
 10
-3.57
 20
4.695
 30
0.0
 11
-3.57
 21
4.38
 31
0.0
  0
LINE
  5
c7df270e
330
1F
  8
Layer
  6
Continuous
100
AcDbLine
 10
-3.57
 20
4.38
 30
0.0
 11
-3.545
 21
4.38
 31
0.0
  0
ARC
  5
4866773d
330
1F
  8
Layer
  6
Continuous
100
AcDbCircle
 10
-3.544999999948997
 20
4.280000000051003
 30
0.0
 40
0.09999999994899719
100
AcDbArc
 50
-2.9222936428191334E-8
 51
90.00000002922258
  0
LINE
  5
9a87c974
330
1F
  8
Layer
  6
Continuous
100
AcDbLine
 10
-3.445
 20
4.279999999999999
 30
0.0
 11
-3.445
 21
0.7919999999999998
 31
0.0
  0
ARC
  5
1709336b
330
1F
  8
Layer
  6
Continuous
100
AcDbCircle
 10
-3.5450000000063424
 20
0.7920000000063427
 30
0.0
 40
0.10000000000634256
100
AcDbArc
 50
-89.99999999636601
 51
-2.9222936428191334E-8
  0
LINE
  5
e89cf12a
330
1F
  8
Layer
  6
Continuous
100
AcDbLine
 10
-3.545
 20
0.6920000000000002
 30
0.0
 11
-3.9699999999999998
 21
0.6920000000000002
 31
0.0
  0
ARC
  5
1e688516
330
1F
  8
Layer
  6
Continuous
100
AcDbCircle
 10
-3.9699999999363085
 20
0.7920000000636915
 30
0.0
 40
0.10000000006369135
100
AcDbArc
 50
-179.99999996350758
 51
-89.99999999636601
  0
LINE
  5
3b407422
330
1F
  8
Layer
  6
Continuous
100
AcDbLine
 10
-4.07
 20
0.7920000000000003
 30
0.0
 11
-4.07
 21
4.28
 31
0.0
  0
ARC
  5
50322ea2
330
1F
  8
Layer
  6
Continuous
100
AcDbCircle
 10
-3.9699999999936555
 20
4.279999999993656
 30
0.0
 40
0.10000000000634446
100
AcDbArc
 50
90.00000002922258
 51
-179.99999996350758
  0
LINE
  5
bde78a57
330
1F
  8
Layer
  6
Continuous
100
AcDbLine
 10
-3.9699999999999998
 20
4.380000000000001
 30
0.0
 11
-3.945
 21
4.380000000000001
 31
0.0
  0
LINE
  5
ab86ad8d
330
1F
  8
Layer
  6
Continuous
100
AcDbLine
 10
-3.945
 20
4.380000000000001
 30
0.0
 11
-3.945
 21
4.695
 31
0.0
  0
ENDSEC
999
Created By CadLib version 2.0.33.7
999
CadLib website: www.woutware.com
  0
EOF
