  0
SECTION
  2
HEADER
  9
$ACADVER
  1
AC1012
  9
$DWGCODEPAGE
  3
ansi_1252
  9
$INSUNITS
  1

  9
$INSBASE
 10
0.0
 20
0.0
 30
0.0
  9
$EXTMIN
 10
-1000.0
 20
-1000.0
 30
0.0
  9
$EXTMAX
 10
1000.0
 20
1000.0
 30
0.0
  9
$LIMMIN
 10
0.0
 20
0.0
  9
$LIMMAX
 10
0.0
 20
0.0
  9
$ORTHOMODE
 70
     0
  9
$REGENMODE
 70
     1
  9
$FILLMODE
 70
     1
  9
$QTEXTMODE
 70
     0
  9
$MIRRTEXT
 70
     1
  9
$DRAGMODE
 70
     2
  9
$LTSCALE
 40
1.0
  9
$OSMODE
 70
    37
  9
$ATTMODE
 70
     1
  9
$TEXTSIZE
 40
0.1377952756
  9
$TRACEWID
 40
0.05
  9
$TEXTSTYLE
  7
STANDARD
  9
$CLAYER
  8
0
  9
$CELTYPE
  6
BYLAYER
  9
$CECOLOR
 62
   256
  9
$CELTSCALE
 40
1.0
  9
$DELOBJ
 70
     1
  9
$DISPSILH
 70
     0
  9
$DIMSCALE
 40
1.0
  9
$DIMASZ
 40
0.2362204724
  9
$DIMEXO
 40
0.0393700787
  9
$DIMDLI
 40
0.38
  9
$DIMRND
 40
0.0
  9
$DIMDLE
 40
0.0
  9
$DIMEXE
 40
0.0393700787
  9
$DIMTP
 40
0.0
  9
$DIMTM
 40
0.0
  9
$DIMTXT
 40
0.1377952756
  9
$DIMCEN
 40
0.09
  9
$DIMTSZ
 40
0.0
  9
$DIMTOL
 70
     0
  9
$DIMLIM
 70
     0
  9
$DIMTIH
 70
     1
  9
$DIMTOH
 70
     1
  9
$DIMSE1
 70
     0
  9
$DIMSE2
 70
     0
  9
$DIMTAD
 70
     0
  9
$DIMZIN
 70
     1
  9
$DIMBLK
  1

  9
$DIMASO
 70
     1
  9
$DIMSHO
 70
     1
  9
$DIMPOST
  1

  9
$DIMAPOST
  1

  9
$DIMALT
 70
     0
  9
$DIMALTD
 70
     2
  9
$DIMALTF
 40
25.4
  9
$DIMLFAC
 40
1.0
  9
$DIMTOFL
 70
     0
  9
$DIMTVP
 40
0.0
  9
$DIMTIX
 70
     0
  9
$DIMSOXD
 70
     0
  9
$DIMSAH
 70
     0
  9
$DIMBLK1
  1

  9
$DIMBLK2
  1

  9
$DIMSTYLE
  2
STANDARD
  9
$DIMCLRD
 70
     0
  9
$DIMCLRE
 70
     0
  9
$DIMCLRT
 70
     0
  9
$DIMTFAC
 40
1.0
  9
$DIMGAP
 40
0.06
  9
$DIMJUST
 70
     0
  9
$DIMSD1
 70
     0
  9
$DIMSD2
 70
     0
  9
$DIMTOLJ
 70
     1
  9
$DIMTZIN
 70
     1
  9
$DIMALTZ
 70
     0
  9
$DIMALTTZ
 70
     0
  9
$DIMFIT
 70
     3
  9
$DIMUPT
 70
     0
  9
$DIMUNIT
 70
     2
  9
$DIMDEC
 70
     4
  9
$DIMTDEC
 70
     4
  9
$DIMALTU
 70
     2
  9
$DIMALTTD
 70
     2
  9
$DIMTXSTY
  7
STANDARD
  9
$DIMAUNIT
 70
     0
  9
$LUNITS
 70
     2
  9
$LUPREC
 70
     4
  9
$SKETCHINC
 40
0.1
  9
$FILLETRAD
 40
0.5
  9
$AUNITS
 70
     0
  9
$AUPREC
 70
     0
  9
$MENU
  1
.
  9
$ELEVATION
 40
0.0
  9
$PELEVATION
 40
0.0
  9
$THICKNESS
 40
0.0
  9
$LIMCHECK
 70
     0
  9
$CHAMFERA
 40
0.5
  9
$CHAMFERB
 40
0.5
  9
$CHAMFERC
 40
1.0
  9
$CHAMFERD
 40
0.0
  9
$SKPOLY
 70
     0
  9
$TDCREATE
 40
2457059.4862175
  9
$TDUPDATE
 40
2457059.486217511
  9
$TDINDWG
 40
0.0000000116
  9
$TDUSRTIMER
 40
0.0000000116
  9
$USRTIMER
 70
     1
  9
$ANGBASE
 50
0.0
  9
$ANGDIR
 70
     0
  9
$PDMODE
 70
     0
  9
$PDSIZE
 40
-1.0
  9
$PLINEWID
 40
0.0
  9
$COORDS
 70
     1
  9
$SPLFRAME
 70
     0
  9
$SPLINETYPE
 70
     6
  9
$SPLINESEGS
 70
     8
  9
$ATTDIA
 70
     0
  9
$ATTREQ
 70
     1
  9
$HANDLING
 70
     1
  9
$HANDSEED
  5
48
  9
$SURFTAB1
 70
     6
  9
$SURFTAB2
 70
     6
  9
$SURFTYPE
 70
     6
  9
$SURFU
 70
     6
  9
$SURFV
 70
     6
  9
$UCSNAME
  2

  9
$UCSORG
 10
0.0
 20
0.0
 30
0.0
  9
$UCSXDIR
 10
1.0
 20
0.0
 30
0.0
  9
$UCSYDIR
 10
0.0
 20
1.0
 30
0.0
  9
$PUCSNAME
  2

  9
$PUCSORG
 10
0.0
 20
0.0
 30
0.0
  9
$PUCSXDIR
 10
1.0
 20
0.0
 30
0.0
  9
$PUCSYDIR
 10
0.0
 20
1.0
 30
0.0
  9
$USERI1
 70
     0
  9
$USERI2
 70
     0
  9
$USERI3
 70
     0
  9
$USERI4
 70
     0
  9
$USERI5
 70
     0
  9
$USERR1
 40
0.0
  9
$USERR2
 40
0.0
  9
$USERR3
 40
0.0
  9
$USERR4
 40
0.0
  9
$USERR5
 40
0.0
  9
$WORLDVIEW
 70
     1
  9
$SHADEDGE
 70
     3
  9
$SHADEDIF
 70
    70
  9
$TILEMODE
 70
     1
  9
$MAXACTVP
 70
    64
  9
$PINSBASE
 10
0.0
 20
0.0
 30
0.0
  9
$PLIMCHECK
 70
     0
  9
$PEXTMIN
 10
1.0000000000E+20
 20
1.0000000000E+20
 30
1.0000000000E+20
  9
$PEXTMAX
 10
-1.0000000000E+20
 20
-1.0000000000E+20
 30
-1.0000000000E+20
  9
$PLIMMIN
 10
0.0
 20
0.0
  9
$PLIMMAX
 10
12.0
 20
9.0
  9
$UNITMODE
 70
     0
  9
$VISRETAIN
 70
     1
  9
$PLINEGEN
 70
     0
  9
$PSLTSCALE
 70
     1
  9
$TREEDEPTH
 70
  3020
  9
$PICKSTYLE
 70
     1
  9
$CMLSTYLE
  2
STANDARD
  9
$CMLJUST
 70
     0
  9
$CMLSCALE
 40
1.0
  9
$SAVEIMAGES
 70
     1
  0
ENDSEC
  0
SECTION
  2
CLASSES
  0
CLASS
  1
ACDBDICTIONARYWDFLT
  2
AcDbDictionaryWithDefault
  3
ObjectDBX Classes
 90
    32768
280
     0
281
     0
  0
CLASS
  1
XRECORD
  2
AcDbXrecord
  3
AutoCAD 2000
 90
    32768
280
     0
281
     0
  0
CLASS
  1
LWPOLYLINE
  2
AcDbPolyline
  3
AutoCAD 2000
 90
    32768
280
     0
281
     1
  0
CLASS
  1
HATCH
  2
AcDbHatch
  3
AutoCAD 2000
 90
    32768
280
     0
281
     1
  0
CLASS
  1
ACDBPLACEHOLDER
  2
AcDbPlaceHolder
  3
ObjectDBX Classes
 90
        0
280
     0
281
     0
  0
CLASS
  1
LAYOUT
  2
AcDbLayout
  3
ObjectDBX Classes
 90
        0
280
     0
281
     0
  0
ENDSEC
  0
SECTION
  2
TABLES
  0
TABLE
  2
VPORT
  5
8
330
0
100
AcDbSymbolTable
 70
     1
  0
VPORT
  5
29
330
8
100
AcDbSymbolTableRecord
100
AcDbViewportTableRecord
  2
*ACTIVE
 70
     0
 10
0.0
 20
0.0
 11
1.0
 21
1.0
 12
8.2677165354
 22
5.8464566929
 13
0.0
 23
0.0
 14
0.5
 24
0.5
 15
0.5
 25
0.5
 16
0.0
 26
0.0
 36
1.0
 17
0.0
 27
0.0
 37
0.0
 40
11.6929133858
 41
1.4141414141
 42
50.0
 43
0.0
 44
0.0
 50
0.0
 51
0.0
 71
     0
 72
  2000
 73
     1
 74
     3
 75
     0
 76
     0
 77
     0
 78
     0
  0
ENDTAB
  0
TABLE
  2
LTYPE
  5
5
330
0
100
AcDbSymbolTable
 70
     6
  0
LTYPE
  5
14
330
5
100
AcDbSymbolTableRecord
100
AcDbLinetypeTableRecord
  2
BYBLOCK
 70
     0
  3

 72
    65
 73
     0
 40
0.0
  0
LTYPE
  5
15
330
5
100
AcDbSymbolTableRecord
100
AcDbLinetypeTableRecord
  2
BYLAYER
 70
     0
  3

 72
    65
 73
     0
 40
0.0
  0
LTYPE
  5
16
330
5
100
AcDbSymbolTableRecord
100
AcDbLinetypeTableRecord
  2
CONTINUOUS
 70
     0
  3
Solid line
 72
    65
 73
     0
 40
0.0
  0
LTYPE
  5
2A
330
5
100
AcDbSymbolTableRecord
100
AcDbLinetypeTableRecord
  2
HIDDEN
 70
     0
  3
Hidden __ __ __ __ __ __ __ __ __ __ __ __ __ __
 72
    65
 73
     2
 40
0.075
 49
0.05
 74
     0
 49
-0.025
 74
     0
  0
LTYPE
  5
2B
330
5
100
AcDbSymbolTableRecord
100
AcDbLinetypeTableRecord
  2
PHANTOM
 70
     0
  3
Phantom ______  __  __  ______  __  __  ______
 72
    65
 73
     6
 40
0.5
 49
0.25
 74
     0
 49
-0.05
 74
     0
 49
0.05
 74
     0
 49
-0.05
 74
     0
 49
0.05
 74
     0
 49
-0.05
 74
     0
  0
LTYPE
  5
2C
330
5
100
AcDbSymbolTableRecord
100
AcDbLinetypeTableRecord
  2
CENTER
 70
     0
  3
Center ____ _ ____ _ ____ _ ____ _ ____ _ ____
 72
    65
 73
     4
 40
0.4
 49
0.25
 74
     0
 49
-0.05
 74
     0
 49
0.05
 74
     0
 49
-0.05
 74
     0
  0
LTYPE
  5
2D
330
5
100
AcDbSymbolTableRecord
100
AcDbLinetypeTableRecord
  2
CENTERX2
 70
     0
  3
Center (2x) ________  __  ________  __  _____
 72
    65
 73
     4
 40
0.8
 49
0.5
 74
     0
 49
-0.1
 74
     0
 49
0.1
 74
     0
 49
-0.1
 74
     0
  0
LTYPE
  5
2E
330
5
100
AcDbSymbolTableRecord
100
AcDbLinetypeTableRecord
  2
DOT2
 70
     0
  3
Dot (.5x) ........................................
 72
    65
 73
     2
 40
0.025
 49
0.0
 74
     0
 49
-0.025
 74
     0
  0
ENDTAB
  0
TABLE
  2
LAYER
  5
2
330
0
100
AcDbSymbolTable
 70
     2
  0
LAYER
  5
10
330
2
100
AcDbSymbolTableRecord
100
AcDbLayerTableRecord
  2
0
 70
     0
 62
     7
  6
CONTINUOUS
  0
LAYER
  5
2F
330
2
100
AcDbSymbolTableRecord
100
AcDbLayerTableRecord
  2
GRAIN DIRECTION
 70
     0
 62
   2
  6
CONTINUOUS
  0
ENDTAB
  0
TABLE
  2
STYLE
  5
3
330
0
100
AcDbSymbolTable
 70
     1
  0
STYLE
  5
11
330
3
100
AcDbSymbolTableRecord
100
AcDbTextStyleTableRecord
  2
STANDARD
 70
     0
 40
0.0
 41
1.0
 50
0.0
 71
     0
 42
0.2
  3
txt
  4

  0
ENDTAB
  0
TABLE
  2
VIEW
  5
6
330
0
100
AcDbSymbolTable
 70
     0
  0
ENDTAB
  0
TABLE
  2
UCS
  5
7
330
0
100
AcDbSymbolTable
 70
     0
  0
ENDTAB
  0
TABLE
  2
APPID
  5
9
330
0
100
AcDbSymbolTable
 70
     1
  0
APPID
  5
12
330
9
100
AcDbSymbolTableRecord
100
AcDbRegAppTableRecord
  2
ACAD
 70
     0
  0
ENDTAB
  0
TABLE
  2
DIMSTYLE
  5
A
330
0
100
AcDbSymbolTable
 70
     1
  0
DIMSTYLE
105
27
330
A
100
AcDbSymbolTableRecord
100
AcDbDimStyleTableRecord
  2
STANDARD
 70
     0
  3

  4

  5

  6

  7

 40
1.0
 41
0.18
 42
0.0625
 43
0.38
 44
0.18
 45
0.0
 46
0.0
 47
0.0
 48
0.0
140
0.18
141
0.09
142
0.0
143
25.4
144
1.0
145
0.0
146
1.0
147
0.09
 71
     0
 72
     0
 73
     1
 74
     1
 75
     0
 76
     0
 77
     0
 78
     0
170
     0
171
     2
172
     0
173
     0
174
     0
175
     0
176
     0
177
     0
178
     0
270
     2
271
     4
272
     4
273
     2
274
     2
340
11
275
     0
280
     0
281
     0
282
     0
283
     1
284
     0
285
     0
286
     0
287
     3
288
     0
  0
ENDTAB
  0
TABLE
  2
BLOCK_RECORD
  5
1
330
0
100
AcDbSymbolTable
 70
     1
  0
BLOCK_RECORD
  5
1F
330
1
100
AcDbSymbolTableRecord
100
AcDbBlockTableRecord
  2
*MODEL_SPACE
  0
BLOCK_RECORD
  5
1B
330
1
100
AcDbSymbolTableRecord
100
AcDbBlockTableRecord
  2
*PAPER_SPACE
  0
ENDTAB
  0
ENDSEC
  0
SECTION
  2
BLOCKS
  0
BLOCK
  5
20
330
1F
100
AcDbEntity
  8
0
100
AcDbBlockBegin
  2
*MODEL_SPACE
 70
     0
 71
     0
 10
0.0
 20
0.0
 30
0.0
  3
*MODEL_SPACE
  1

  0
ENDBLK
  5
21
330
1F
100
AcDbEntity
  8
0
100
AcDbBlockEnd
  0
BLOCK
  5
1C
330
1B
100
AcDbEntity
 67
     1
  8
0
100
AcDbBlockBegin
  2
*PAPER_SPACE
 70
     0
 71
     0
 10
0.0
 20
0.0
 30
0.0
  3
*PAPER_SPACE
  1

  0
ENDBLK
  5
1D
330
1B
100
AcDbEntity
 67
     1
  8
0
100
AcDbBlockEnd
  0
ENDSEC
  0
SECTION
  2
ENTITIES
  0
LINE
  5
acb4de2a
330
1F
  8
Layer
100
AcDbEntity
  6
CONTINUOUS
100
AcDbLine
 10
-3.945
 20
4.695
 30
0.0
 11
-3.945
 21
4.380000000000001
 31
0.0
  0
LINE
  5
bd9f0e32
330
1F
  8
Layer
100
AcDbEntity
  6
CONTINUOUS
100
AcDbLine
 10
-3.945
 20
4.380000000000001
 30
0.0
 11
-3.9699999999999998
 21
4.380000000000001
 31
0.0
  0
ARC
  5
f5214361
330
1F
  8
Layer
100
AcDbEntity
  6
CONTINUOUS
100
AcDbCircle
 10
-3.969999999948995
 20
4.279999999993654
 30
0.0
 40
0.10000000000634615
100
AcDbArc
 50
90.00000002922346
 51
-179.9999999635086
  0
LINE
  5
76afa053
330
1F
  8
Layer
100
AcDbEntity
  6
CONTINUOUS
100
AcDbLine
 10
-4.069999999955341
 20
4.279999999929965
 30
0.0
 11
-4.069999999955341
 21
0.7919999999299647
 31
0.0
  0
ARC
  5
78111df4
330
1F
  8
Layer
100
AcDbEntity
  6
CONTINUOUS
100
AcDbCircle
 10
-3.9699999998916504
 20
0.7919999999936556
 30
0.0
 40
0.10000000006369111
100
AcDbArc
 50
-179.99999996350783
 51
-89.99999999636603
  0
LINE
  5
5fb331d0
330
1F
  8
Layer
100
AcDbEntity
  6
CONTINUOUS
100
AcDbLine
 10
-3.969999999885308
 20
0.6919999999299646
 30
0.0
 11
-3.544999999885308
 21
0.6919999999299646
 31
0.0
  0
ARC
  5
65b1e287
330
1F
  8
Layer
100
AcDbEntity
  6
CONTINUOUS
100
AcDbCircle
 10
-3.544999999891651
 20
0.7919999999363072
 30
0.0
 40
0.10000000000634274
100
AcDbArc
 50
-89.99999999636577
 51
-2.9222936411433177E-8
  0
LINE
  5
1407ed5e
330
1F
  8
Layer
100
AcDbEntity
  6
CONTINUOUS
100
AcDbLine
 10
-3.444999999885308
 20
0.7919999998853036
 30
0.0
 11
-3.444999999885308
 21
4.2799999998853036
 31
0.0
  0
ARC
  5
e386a12f
330
1F
  8
Layer
100
AcDbEntity
  6
CONTINUOUS
100
AcDbCircle
 10
-3.544999999834305
 20
4.279999999936306
 30
0.0
 40
0.09999999994899682
100
AcDbArc
 50
-2.9222427539442103E-8
 51
90.00000002922295
  0
LINE
  5
edd3f876
330
1F
  8
Layer
100
AcDbEntity
  6
CONTINUOUS
100
AcDbLine
 10
-3.5449999998853086
 20
4.379999999885303
 30
0.0
 11
-3.5699999998853085
 21
4.379999999885303
 31
0.0
  0
LINE
  5
23a4a097
330
1F
  8
Layer
100
AcDbEntity
  6
CONTINUOUS
100
AcDbLine
 10
-3.5699999998853085
 20
4.379999999885303
 30
0.0
 11
-3.5699999998853085
 21
4.694999999885304
 31
0.0
  0
LINE
  5
3465f4fc
330
1F
  8
Layer
100
AcDbEntity
  6
CONTINUOUS
100
AcDbLine
 10
-3.5699999998853085
 20
4.694999999885304
 30
0.0
 11
-3.945
 21
4.695
 31
0.0
  0
LINE
  5
43e5fef7
330
1F
  8
Layer
100
AcDbEntity
  6
CONTINUOUS
100
AcDbLine
 10
-12.101
 20
0.283
 30
0.0
 11
-5.841
 21
0.283
 31
0.0
  0
LINE
  5
25b0c484
330
1F
  8
Layer
100
AcDbEntity
  6
CONTINUOUS
100
AcDbLine
 10
-5.841
 20
0.283
 30
0.0
 11
-5.841
 21
2.043
 31
0.0
  0
LINE
  5
19da2bd3
330
1F
  8
Layer
100
AcDbEntity
  6
CONTINUOUS
100
AcDbLine
 10
-5.841
 20
2.043
 30
0.0
 11
-12.101
 21
2.043
 31
0.0
  0
LINE
  5
b9a6b706
330
1F
  8
Layer
100
AcDbEntity
  6
CONTINUOUS
100
AcDbLine
 10
-12.101
 20
2.043
 30
0.0
 11
-12.101
 21
0.283
 31
0.0
  0
LINE
  5
3a3784f2
330
1F
  8
Layer
100
AcDbEntity
  6
CONTINUOUS
100
AcDbLine
 10
-3.145
 20
4.695
 30
0.0
 11
-3.145
 21
4.380000000000001
 31
0.0
  0
LINE
  5
3e5a0f56
330
1F
  8
Layer
100
AcDbEntity
  6
CONTINUOUS
100
AcDbLine
 10
-3.145
 20
4.380000000000001
 30
0.0
 11
-3.17
 21
4.380000000000001
 31
0.0
  0
ARC
  5
a4eb737b
330
1F
  8
Layer
100
AcDbEntity
  6
CONTINUOUS
100
AcDbCircle
 10
-3.1699999999489963
 20
4.279999999993656
 30
0.0
 40
0.10000000000634462
100
AcDbArc
 50
90.00000002922295
 51
-179.99999996350758
  0
LINE
  5
08c33f10
330
1F
  8
Layer
100
AcDbEntity
  6
CONTINUOUS
100
AcDbLine
 10
-3.269999999955341
 20
4.279999999929965
 30
0.0
 11
-3.269999999955341
 21
0.7919999999299647
 31
0.0
  0
ARC
  5
b1841cc9
330
1F
  8
Layer
100
AcDbEntity
  6
CONTINUOUS
100
AcDbCircle
 10
-3.16999999989165
 20
0.7919999999936556
 30
0.0
 40
0.10000000006369111
100
AcDbArc
 50
-179.99999996350783
 51
-89.99999999636577
  0
LINE
  5
f12e842d
330
1F
  8
Layer
100
AcDbEntity
  6
CONTINUOUS
100
AcDbLine
 10
-3.1699999998853072
 20
0.6919999999299646
 30
0.0
 11
-2.7449999998853074
 21
0.6919999999299646
 31
0.0
  0
ARC
  5
2ca9771d
330
1F
  8
Layer
100
AcDbEntity
  6
CONTINUOUS
100
AcDbCircle
 10
-2.7449999998916503
 20
0.7919999999363072
 30
0.0
 40
0.10000000000634274
100
AcDbArc
 50
-89.99999999636577
 51
-2.9222936411433177E-8
  0
LINE
  5
4c9c55cd
330
1F
  8
Layer
100
AcDbEntity
  6
CONTINUOUS
100
AcDbLine
 10
-2.6449999998853073
 20
0.7919999998853036
 30
0.0
 11
-2.6449999998853073
 21
4.2799999998853036
 31
0.0
  0
ARC
  5
c523dea0
330
1F
  8
Layer
100
AcDbEntity
  6
CONTINUOUS
100
AcDbCircle
 10
-2.744999999834304
 20
4.279999999936306
 30
0.0
 40
0.09999999994899682
100
AcDbArc
 50
-2.9222427539442103E-8
 51
90.00000002922295
  0
LINE
  5
d0414a65
330
1F
  8
Layer
100
AcDbEntity
  6
CONTINUOUS
100
AcDbLine
 10
-2.744999999885308
 20
4.379999999885303
 30
0.0
 11
-2.7699999998853078
 21
4.379999999885303
 31
0.0
  0
LINE
  5
e31b649f
330
1F
  8
Layer
100
AcDbEntity
  6
CONTINUOUS
100
AcDbLine
 10
-2.7699999998853078
 20
4.379999999885303
 30
0.0
 11
-2.7699999998853078
 21
4.694999999885304
 31
0.0
  0
LINE
  5
769577d5
330
1F
  8
Layer
100
AcDbEntity
  6
CONTINUOUS
100
AcDbLine
 10
-2.7699999998853078
 20
4.694999999885304
 30
0.0
 11
-3.145
 21
4.695
 31
0.0
  0
LINE
  5
f0b61d2e
330
1F
  8
Layer
100
AcDbEntity
  6
CONTINUOUS
100
AcDbLine
 10
-0.745
 20
4.695
 30
0.0
 11
-0.745
 21
4.380000000000001
 31
0.0
  0
LINE
  5
75b48f00
330
1F
  8
Layer
100
AcDbEntity
  6
CONTINUOUS
100
AcDbLine
 10
-0.745
 20
4.380000000000001
 30
0.0
 11
-0.7699999999999999
 21
4.380000000000001
 31
0.0
  0
ARC
  5
6ac2c978
330
1F
  8
Layer
100
AcDbEntity
  6
CONTINUOUS
100
AcDbCircle
 10
-0.7699999999489964
 20
4.279999999993656
 30
0.0
 40
0.10000000000634501
100
AcDbArc
 50
90.00000002922289
 51
-179.99999996350758
  0
LINE
  5
68d6bd4a
330
1F
  8
Layer
100
AcDbEntity
  6
CONTINUOUS
100
AcDbLine
 10
-0.8699999999553414
 20
4.279999999929965
 30
0.0
 11
-0.8699999999553414
 21
0.7919999999299647
 31
0.0
  0
ARC
  5
45b5ae87
330
1F
  8
Layer
100
AcDbEntity
  6
CONTINUOUS
100
AcDbCircle
 10
-0.7699999998916501
 20
0.791999999993656
 30
0.0
 40
0.1000000000636913
100
AcDbArc
 50
-179.99999996350758
 51
-89.99999999636596
  0
LINE
  5
f093b86c
330
1F
  8
Layer
100
AcDbEntity
  6
CONTINUOUS
100
AcDbLine
 10
-0.7699999998853075
 20
0.6919999999299646
 30
0.0
 11
-0.3449999998853075
 21
0.6919999999299646
 31
0.0
  0
ARC
  5
011c294f
330
1F
  8
Layer
100
AcDbEntity
  6
CONTINUOUS
100
AcDbCircle
 10
-0.34499999989165
 20
0.7919999999363072
 30
0.0
 40
0.10000000000634254
100
AcDbArc
 50
-89.99999999636603
 51
-2.922293641143331E-8
  0
LINE
  5
d8f663da
330
1F
  8
Layer
100
AcDbEntity
  6
CONTINUOUS
100
AcDbLine
 10
-0.2449999998853074
 20
0.7919999998853036
 30
0.0
 11
-0.2449999998853074
 21
4.2799999998853036
 31
0.0
  0
ARC
  5
d09df768
330
1F
  8
Layer
100
AcDbEntity
  6
CONTINUOUS
100
AcDbCircle
 10
-0.3449999998343043
 20
4.279999999936306
 30
0.0
 40
0.09999999994899685
100
AcDbArc
 50
-2.9222427539442103E-8
 51
90.00000002922276
  0
LINE
  5
f55496b3
330
1F
  8
Layer
100
AcDbEntity
  6
CONTINUOUS
100
AcDbLine
 10
-0.3449999998853076
 20
4.379999999885303
 30
0.0
 11
-0.3699999998853075
 21
4.379999999885303
 31
0.0
  0
LINE
  5
ceb5d717
330
1F
  8
Layer
100
AcDbEntity
  6
CONTINUOUS
100
AcDbLine
 10
-0.3699999998853075
 20
4.379999999885303
 30
0.0
 11
-0.3699999998853075
 21
4.694999999885304
 31
0.0
  0
LINE
  5
961a88dd
330
1F
  8
Layer
100
AcDbEntity
  6
CONTINUOUS
100
AcDbLine
 10
-0.3699999998853075
 20
4.694999999885304
 30
0.0
 11
-0.745
 21
4.695
 31
0.0
  0
LINE
  5
b3adee97
330
1F
  8
Layer
100
AcDbEntity
  6
CONTINUOUS
100
AcDbLine
 10
-4.745
 20
4.695
 30
0.0
 11
-4.745
 21
4.380000000000001
 31
0.0
  0
LINE
  5
a8aada02
330
1F
  8
Layer
100
AcDbEntity
  6
CONTINUOUS
100
AcDbLine
 10
-4.745
 20
4.380000000000001
 30
0.0
 11
-4.77
 21
4.380000000000001
 31
0.0
  0
ARC
  5
d5f4dd75
330
1F
  8
Layer
100
AcDbEntity
  6
CONTINUOUS
100
AcDbCircle
 10
-4.769999999948997
 20
4.279999999993656
 30
0.0
 40
0.10000000000634462
100
AcDbArc
 50
90.00000002922243
 51
-179.99999996350758
  0
LINE
  5
ed7a5d74
330
1F
  8
Layer
100
AcDbEntity
  6
CONTINUOUS
100
AcDbLine
 10
-4.869999999955342
 20
4.279999999929965
 30
0.0
 11
-4.869999999955342
 21
0.7919999999299647
 31
0.0
  0
ARC
  5
f2fcab91
330
1F
  8
Layer
100
AcDbEntity
  6
CONTINUOUS
100
AcDbCircle
 10
-4.769999999891651
 20
0.7919999999936556
 30
0.0
 40
0.10000000006369111
100
AcDbArc
 50
-179.99999996350783
 51
-89.99999999636603
  0
LINE
  5
c371e7fc
330
1F
  8
Layer
100
AcDbEntity
  6
CONTINUOUS
100
AcDbLine
 10
-4.769999999885308
 20
0.6919999999299646
 30
0.0
 11
-4.3449999998853075
 21
0.6919999999299646
 31
0.0
  0
ARC
  5
b7afa0f4
330
1F
  8
Layer
100
AcDbEntity
  6
CONTINUOUS
100
AcDbCircle
 10
-4.344999999891649
 20
0.7919999999363059
 30
0.0
 40
0.1000000000063414
100
AcDbArc
 50
-89.99999999636654
 51
-2.9222173078310192E-8
  0
LINE
  5
6961753b
330
1F
  8
Layer
100
AcDbEntity
  6
CONTINUOUS
100
AcDbLine
 10
-4.244999999885308
 20
0.7919999998853036
 30
0.0
 11
-4.244999999885308
 21
4.2799999998853036
 31
0.0
  0
ARC
  5
9803ab60
330
1F
  8
Layer
100
AcDbEntity
  6
CONTINUOUS
100
AcDbCircle
 10
-4.344999999834305
 20
4.279999999936306
 30
0.0
 40
0.0999999999489968
100
AcDbArc
 50
-2.9222427539442103E-8
 51
90.00000002922243
  0
LINE
  5
8afa0929
330
1F
  8
Layer
100
AcDbEntity
  6
CONTINUOUS
100
AcDbLine
 10
-4.3449999998853075
 20
4.379999999885303
 30
0.0
 11
-4.369999999885307
 21
4.379999999885303
 31
0.0
  0
LINE
  5
cb493a51
330
1F
  8
Layer
100
AcDbEntity
  6
CONTINUOUS
100
AcDbLine
 10
-4.369999999885307
 20
4.379999999885303
 30
0.0
 11
-4.369999999885307
 21
4.694999999885304
 31
0.0
  0
LINE
  5
04562212
330
1F
  8
Layer
100
AcDbEntity
  6
CONTINUOUS
100
AcDbLine
 10
-4.369999999885307
 20
4.694999999885304
 30
0.0
 11
-4.745
 21
4.695
 31
0.0
  0
LINE
  5
121ed3dd
330
1F
  8
Layer
100
AcDbEntity
  6
CONTINUOUS
100
AcDbLine
 10
-2.345
 20
4.695
 30
0.0
 11
-2.345
 21
4.380000000000001
 31
0.0
  0
LINE
  5
7dc9f03b
330
1F
  8
Layer
100
AcDbEntity
  6
CONTINUOUS
100
AcDbLine
 10
-2.345
 20
4.380000000000001
 30
0.0
 11
-2.37
 21
4.380000000000001
 31
0.0
  0
ARC
  5
4bc40fba
330
1F
  8
Layer
100
AcDbEntity
  6
CONTINUOUS
100
AcDbCircle
 10
-2.3699999999489965
 20
4.279999999993656
 30
0.0
 40
0.10000000000634462
100
AcDbArc
 50
90.00000002922295
 51
-179.99999996350758
  0
LINE
  5
e4d8c0ff
330
1F
  8
Layer
100
AcDbEntity
  6
CONTINUOUS
100
AcDbLine
 10
-2.4699999999553413
 20
4.279999999929965
 30
0.0
 11
-2.4699999999553413
 21
0.7919999999299647
 31
0.0
  0
ARC
  5
40bb0145
330
1F
  8
Layer
100
AcDbEntity
  6
CONTINUOUS
100
AcDbCircle
 10
-2.3699999998916503
 20
0.7919999999936556
 30
0.0
 40
0.10000000006369111
100
AcDbArc
 50
-179.99999996350783
 51
-89.99999999636577
  0
LINE
  5
f817db70
330
1F
  8
Layer
100
AcDbEntity
  6
CONTINUOUS
100
AcDbLine
 10
-2.3699999998853074
 20
0.6919999999299646
 30
0.0
 11
-1.9449999998853076
 21
0.6919999999299646
 31
0.0
  0
ARC
  5
90ac6770
330
1F
  8
Layer
100
AcDbEntity
  6
CONTINUOUS
100
AcDbCircle
 10
-1.9449999998916503
 20
0.7919999999363072
 30
0.0
 40
0.10000000000634274
100
AcDbArc
 50
-89.9999999963659
 51
-2.9222936411433243E-8
  0
LINE
  5
e1e4417a
330
1F
  8
Layer
100
AcDbEntity
  6
CONTINUOUS
100
AcDbLine
 10
-1.8449999998853075
 20
0.7919999998853036
 30
0.0
 11
-1.8449999998853075
 21
4.2799999998853036
 31
0.0
  0
ARC
  5
aa2c99ed
330
1F
  8
Layer
100
AcDbEntity
  6
CONTINUOUS
100
AcDbCircle
 10
-1.9449999998343044
 20
4.279999999936306
 30
0.0
 40
0.0999999999489968
100
AcDbArc
 50
-2.9222427539442103E-8
 51
90.00000002922269
  0
LINE
  5
f5f2bb2e
330
1F
  8
Layer
100
AcDbEntity
  6
CONTINUOUS
100
AcDbLine
 10
-1.9449999998853076
 20
4.379999999885303
 30
0.0
 11
-1.9699999998853075
 21
4.379999999885303
 31
0.0
  0
LINE
  5
35f38099
330
1F
  8
Layer
100
AcDbEntity
  6
CONTINUOUS
100
AcDbLine
 10
-1.9699999998853075
 20
4.379999999885303
 30
0.0
 11
-1.9699999998853075
 21
4.694999999885304
 31
0.0
  0
LINE
  5
3ef6b4ed
330
1F
  8
Layer
100
AcDbEntity
  6
CONTINUOUS
100
AcDbLine
 10
-1.9699999998853075
 20
4.694999999885304
 30
0.0
 11
-2.345
 21
4.695
 31
0.0
  0
LINE
  5
c3e90298
330
1F
  8
Layer
100
AcDbEntity
  6
CONTINUOUS
100
AcDbLine
 10
-5.545
 20
4.695
 30
0.0
 11
-5.545
 21
4.380000000000001
 31
0.0
  0
LINE
  5
0045d873
330
1F
  8
Layer
100
AcDbEntity
  6
CONTINUOUS
100
AcDbLine
 10
-5.545
 20
4.380000000000001
 30
0.0
 11
-5.57
 21
4.380000000000001
 31
0.0
  0
ARC
  5
25d543f4
330
1F
  8
Layer
100
AcDbEntity
  6
CONTINUOUS
100
AcDbCircle
 10
-5.5699999999489975
 20
4.279999999993656
 30
0.0
 40
0.10000000000634462
100
AcDbArc
 50
90.00000002922243
 51
-179.99999996350758
  0
LINE
  5
8606939d
330
1F
  8
Layer
100
AcDbEntity
  6
CONTINUOUS
100
AcDbLine
 10
-5.669999999955342
 20
4.279999999929965
 30
0.0
 11
-5.669999999955342
 21
0.7919999999299647
 31
0.0
  0
ARC
  5
e089da16
330
1F
  8
Layer
100
AcDbEntity
  6
CONTINUOUS
100
AcDbCircle
 10
-5.569999999891651
 20
0.7919999999936556
 30
0.0
 40
0.10000000006369111
100
AcDbArc
 50
-179.99999996350783
 51
-89.99999999636603
  0
LINE
  5
0e6b5fa7
330
1F
  8
Layer
100
AcDbEntity
  6
CONTINUOUS
100
AcDbLine
 10
-5.569999999885309
 20
0.6919999999299646
 30
0.0
 11
-5.144999999885308
 21
0.6919999999299646
 31
0.0
  0
ARC
  5
8082f7f3
330
1F
  8
Layer
100
AcDbEntity
  6
CONTINUOUS
100
AcDbCircle
 10
-5.14499999989165
 20
0.7919999999363059
 30
0.0
 40
0.1000000000063414
100
AcDbArc
 50
-89.99999999636654
 51
-2.9222173078310192E-8
  0
LINE
  5
3bc7bb4f
330
1F
  8
Layer
100
AcDbEntity
  6
CONTINUOUS
100
AcDbLine
 10
-5.044999999885309
 20
0.7919999998853036
 30
0.0
 11
-5.044999999885309
 21
4.2799999998853036
 31
0.0
  0
ARC
  5
a5c479de
330
1F
  8
Layer
100
AcDbEntity
  6
CONTINUOUS
100
AcDbCircle
 10
-5.1449999998343054
 20
4.279999999936306
 30
0.0
 40
0.0999999999489968
100
AcDbArc
 50
-2.9222427539442103E-8
 51
90.00000002922243
  0
LINE
  5
2617bbba
330
1F
  8
Layer
100
AcDbEntity
  6
CONTINUOUS
100
AcDbLine
 10
-5.144999999885308
 20
4.379999999885303
 30
0.0
 11
-5.169999999885309
 21
4.379999999885303
 31
0.0
  0
LINE
  5
4b80a2e0
330
1F
  8
Layer
100
AcDbEntity
  6
CONTINUOUS
100
AcDbLine
 10
-5.169999999885309
 20
4.379999999885303
 30
0.0
 11
-5.169999999885309
 21
4.694999999885304
 31
0.0
  0
LINE
  5
455dff18
330
1F
  8
Layer
100
AcDbEntity
  6
CONTINUOUS
100
AcDbLine
 10
-5.169999999885309
 20
4.694999999885304
 30
0.0
 11
-5.545
 21
4.695
 31
0.0
  0
LINE
  5
b7c19477
330
1F
  8
Layer
100
AcDbEntity
  6
CONTINUOUS
100
AcDbLine
 10
-1.545
 20
4.695
 30
0.0
 11
-1.545
 21
4.380000000000001
 31
0.0
  0
LINE
  5
fc468264
330
1F
  8
Layer
100
AcDbEntity
  6
CONTINUOUS
100
AcDbLine
 10
-1.545
 20
4.380000000000001
 30
0.0
 11
-1.5699999999999998
 21
4.380000000000001
 31
0.0
  0
ARC
  5
b35990d7
330
1F
  8
Layer
100
AcDbEntity
  6
CONTINUOUS
100
AcDbCircle
 10
-1.5699999999489966
 20
4.279999999993656
 30
0.0
 40
0.10000000000634462
100
AcDbArc
 50
90.00000002922269
 51
-179.99999996350758
  0
LINE
  5
6fb79aa8
330
1F
  8
Layer
100
AcDbEntity
  6
CONTINUOUS
100
AcDbLine
 10
-1.6699999999553412
 20
4.279999999929965
 30
0.0
 11
-1.6699999999553412
 21
0.7919999999299647
 31
0.0
  0
ARC
  5
41e2c7ae
330
1F
  8
Layer
100
AcDbEntity
  6
CONTINUOUS
100
AcDbCircle
 10
-1.5699999998916496
 20
0.791999999993656
 30
0.0
 40
0.1000000000636915
100
AcDbArc
 50
-179.99999996350758
 51
-89.99999999636616
  0
LINE
  5
ce0535f2
330
1F
  8
Layer
100
AcDbEntity
  6
CONTINUOUS
100
AcDbLine
 10
-1.5699999998853074
 20
0.6919999999299646
 30
0.0
 11
-1.1449999998853075
 21
0.6919999999299646
 31
0.0
  0
ARC
  5
e496c690
330
1F
  8
Layer
100
AcDbEntity
  6
CONTINUOUS
100
AcDbCircle
 10
-1.1449999998916502
 20
0.7919999999363072
 30
0.0
 40
0.10000000000634274
100
AcDbArc
 50
-89.9999999963659
 51
-2.9222936411433243E-8
  0
LINE
  5
366ae8ab
330
1F
  8
Layer
100
AcDbEntity
  6
CONTINUOUS
100
AcDbLine
 10
-1.0449999998853075
 20
0.7919999998853036
 30
0.0
 11
-1.0449999998853075
 21
4.2799999998853036
 31
0.0
  0
ARC
  5
4d3d8be1
330
1F
  8
Layer
100
AcDbEntity
  6
CONTINUOUS
100
AcDbCircle
 10
-1.1449999998343041
 20
4.279999999936306
 30
0.0
 40
0.0999999999489968
100
AcDbArc
 50
-2.922242753944217E-8
 51
90.00000002922282
  0
LINE
  5
6fc17db5
330
1F
  8
Layer
100
AcDbEntity
  6
CONTINUOUS
100
AcDbLine
 10
-1.1449999998853075
 20
4.379999999885303
 30
0.0
 11
-1.1699999998853075
 21
4.379999999885303
 31
0.0
  0
LINE
  5
6aede6fc
330
1F
  8
Layer
100
AcDbEntity
  6
CONTINUOUS
100
AcDbLine
 10
-1.1699999998853075
 20
4.379999999885303
 30
0.0
 11
-1.1699999998853075
 21
4.694999999885304
 31
0.0
  0
LINE
  5
e59e4583
330
1F
  8
Layer
100
AcDbEntity
  6
CONTINUOUS
100
AcDbLine
 10
-1.1699999998853075
 20
4.694999999885304
 30
0.0
 11
-1.545
 21
4.695
 31
0.0
  0
ENDSEC
  0
SECTION
  2
OBJECTS
  0
DICTIONARY
  5
C
330
0
100
AcDbDictionary
  3
ACAD_GROUP
350
D
  3
ACAD_LAYOUT
350
1A
  3
ACAD_MLINESTYLE
350
17
  3
ACAD_PLOTSETTINGS
350
19
1001
ACAD
1000
TREAT_AS_HARD
1070
     0
  0
DICTIONARY
  5
D
102
{ACAD_REACTORS
330
C
102
}
330
C
100
AcDbDictionary
1001
ACAD
1000
TREAT_AS_HARD
1070
     0
  0
DICTIONARY
  5
1A
102
{ACAD_REACTORS
330
C
102
}
330
C
100
AcDbDictionary
1001
ACAD
1000
TREAT_AS_HARD
1070
     0
  0
DICTIONARY
  5
17
102
{ACAD_REACTORS
330
C
102
}
330
C
100
AcDbDictionary
  3
STANDARD
350
18
1001
ACAD
1000
TREAT_AS_HARD
1070
     0
  0
DICTIONARY
  5
19
102
{ACAD_REACTORS
330
C
102
}
330
C
100
AcDbDictionary
1001
ACAD
1000
TREAT_AS_HARD
1070
     0
  0
MLINESTYLE
  5
18
102
{ACAD_REACTORS
330
17
102
}
330
17
100
AcDbMlineStyle
  2
Standard
 70
     0
  3

 62
   256
 51
90.0
 52
90.0
 71
     2
 49
0.5
 62
   256
  6
BYLAYER
 49
-0.5
 62
   256
  6
BYLAYER
  0
ENDSEC
  0
EOF
