  0
SECTION
  2
HEADER
  9
$ACADVER
  1
AC1012
  9
$DWGCODEPAGE
  3
ansi_1252
  9
$INSBASE
 10
0.0
 20
0.0
 30
0.0
  9
$EXTMIN
 10
-1000.0
 20
-1000.0
 30
0.0
  9
$EXTMAX
 10
1000.0
 20
1000.0
 30
0.0
  9
$LIMMIN
 10
0.0
 20
0.0
  9
$LIMMAX
 10
0.0
 20
0.0
  9
$ORTHOMODE
 70
     0
  9
$REGENMODE
 70
     1
  9
$FILLMODE
 70
     1
  9
$QTEXTMODE
 70
     0
  9
$MIRRTEXT
 70
     1
  9
$DRAGMODE
 70
     2
  9
$LTSCALE
 40
1.0
  9
$OSMODE
 70
    37
  9
$ATTMODE
 70
     1
  9
$TEXTSIZE
 40
0.1377952756
  9
$TRACEWID
 40
0.05
  9
$TEXTSTYLE
  7
STANDARD
  9
$CLAYER
  8
0
  9
$CELTYPE
  6
BYLAYER
  9
$CECOLOR
 62
   256
  9
$CELTSCALE
 40
1.0
  9
$DELOBJ
 70
     1
  9
$DISPSILH
 70
     0
  9
$DIMSCALE
 40
1.0
  9
$DIMASZ
 40
0.2362204724
  9
$DIMEXO
 40
0.0393700787
  9
$DIMDLI
 40
0.38
  9
$DIMRND
 40
0.0
  9
$DIMDLE
 40
0.0
  9
$DIMEXE
 40
0.0393700787
  9
$DIMTP
 40
0.0
  9
$DIMTM
 40
0.0
  9
$DIMTXT
 40
0.1377952756
  9
$DIMCEN
 40
0.09
  9
$DIMTSZ
 40
0.0
  9
$DIMTOL
 70
     0
  9
$DIMLIM
 70
     0
  9
$DIMTIH
 70
     1
  9
$DIMTOH
 70
     1
  9
$DIMSE1
 70
     0
  9
$DIMSE2
 70
     0
  9
$DIMTAD
 70
     0
  9
$DIMZIN
 70
     1
  9
$DIMBLK
  1

  9
$DIMASO
 70
     1
  9
$DIMSHO
 70
     1
  9
$DIMPOST
  1

  9
$DIMAPOST
  1

  9
$DIMALT
 70
     0
  9
$DIMALTD
 70
     2
  9
$DIMALTF
 40
25.4
  9
$DIMLFAC
 40
1.0
  9
$DIMTOFL
 70
     0
  9
$DIMTVP
 40
0.0
  9
$DIMTIX
 70
     0
  9
$DIMSOXD
 70
     0
  9
$DIMSAH
 70
     0
  9
$DIMBLK1
  1

  9
$DIMBLK2
  1

  9
$DIMSTYLE
  2
STANDARD
  9
$DIMCLRD
 70
     0
  9
$DIMCLRE
 70
     0
  9
$DIMCLRT
 70
     0
  9
$DIMTFAC
 40
1.0
  9
$DIMGAP
 40
0.06
  9
$DIMJUST
 70
     0
  9
$DIMSD1
 70
     0
  9
$DIMSD2
 70
     0
  9
$DIMTOLJ
 70
     1
  9
$DIMTZIN
 70
     1
  9
$DIMALTZ
 70
     0
  9
$DIMALTTZ
 70
     0
  9
$DIMFIT
 70
     3
  9
$DIMUPT
 70
     0
  9
$DIMUNIT
 70
     2
  9
$DIMDEC
 70
     4
  9
$DIMTDEC
 70
     4
  9
$DIMALTU
 70
     2
  9
$DIMALTTD
 70
     2
  9
$DIMTXSTY
  7
STANDARD
  9
$DIMAUNIT
 70
     0
  9
$LUNITS
 70
     2
  9
$LUPREC
 70
     4
  9
$SKETCHINC
 40
0.1
  9
$FILLETRAD
 40
0.5
  9
$AUNITS
 70
     0
  9
$AUPREC
 70
     0
  9
$MENU
  1
.
  9
$ELEVATION
 40
0.0
  9
$PELEVATION
 40
0.0
  9
$THICKNESS
 40
0.0
  9
$LIMCHECK
 70
     0
  9
$CHAMFERA
 40
0.5
  9
$CHAMFERB
 40
0.5
  9
$CHAMFERC
 40
1.0
  9
$CHAMFERD
 40
0.0
  9
$SKPOLY
 70
     0
  9
$TDCREATE
 40
2457059.4862175
  9
$TDUPDATE
 40
2457059.486217511
  9
$TDINDWG
 40
0.0000000116
  9
$TDUSRTIMER
 40
0.0000000116
  9
$USRTIMER
 70
     1
  9
$ANGBASE
 50
0.0
  9
$ANGDIR
 70
     0
  9
$PDMODE
 70
     0
  9
$PDSIZE
 40
-1.0
  9
$PLINEWID
 40
0.0
  9
$COORDS
 70
     1
  9
$SPLFRAME
 70
     0
  9
$SPLINETYPE
 70
     6
  9
$SPLINESEGS
 70
     8
  9
$ATTDIA
 70
     0
  9
$ATTREQ
 70
     1
  9
$HANDLING
 70
     1
  9
$HANDSEED
  5
48
  9
$SURFTAB1
 70
     6
  9
$SURFTAB2
 70
     6
  9
$SURFTYPE
 70
     6
  9
$SURFU
 70
     6
  9
$SURFV
 70
     6
  9
$UCSNAME
  2

  9
$UCSORG
 10
0.0
 20
0.0
 30
0.0
  9
$UCSXDIR
 10
1.0
 20
0.0
 30
0.0
  9
$UCSYDIR
 10
0.0
 20
1.0
 30
0.0
  9
$PUCSNAME
  2

  9
$PUCSORG
 10
0.0
 20
0.0
 30
0.0
  9
$PUCSXDIR
 10
1.0
 20
0.0
 30
0.0
  9
$PUCSYDIR
 10
0.0
 20
1.0
 30
0.0
  9
$USERI1
 70
     0
  9
$USERI2
 70
     0
  9
$USERI3
 70
     0
  9
$USERI4
 70
     0
  9
$USERI5
 70
     0
  9
$USERR1
 40
0.0
  9
$USERR2
 40
0.0
  9
$USERR3
 40
0.0
  9
$USERR4
 40
0.0
  9
$USERR5
 40
0.0
  9
$WORLDVIEW
 70
     1
  9
$SHADEDGE
 70
     3
  9
$SHADEDIF
 70
    70
  9
$TILEMODE
 70
     1
  9
$MAXACTVP
 70
    64
  9
$PINSBASE
 10
0.0
 20
0.0
 30
0.0
  9
$PLIMCHECK
 70
     0
  9
$PEXTMIN
 10
1.0000000000E+20
 20
1.0000000000E+20
 30
1.0000000000E+20
  9
$PEXTMAX
 10
-1.0000000000E+20
 20
-1.0000000000E+20
 30
-1.0000000000E+20
  9
$PLIMMIN
 10
0.0
 20
0.0
  9
$PLIMMAX
 10
12.0
 20
9.0
  9
$UNITMODE
 70
     0
  9
$VISRETAIN
 70
     1
  9
$PLINEGEN
 70
     0
  9
$PSLTSCALE
 70
     1
  9
$TREEDEPTH
 70
  3020
  9
$PICKSTYLE
 70
     1
  9
$CMLSTYLE
  2
STANDARD
  9
$CMLJUST
 70
     0
  9
$CMLSCALE
 40
1.0
  9
$SAVEIMAGES
 70
     1
  0
ENDSEC
  0
SECTION
  2
CLASSES
  0
CLASS
  1
ACDBDICTIONARYWDFLT
  2
AcDbDictionaryWithDefault
  3
ObjectDBX Classes
 90
    32768
280
     0
281
     0
  0
CLASS
  1
XRECORD
  2
AcDbXrecord
  3
AutoCAD 2000
 90
    32768
280
     0
281
     0
  0
CLASS
  1
LWPOLYLINE
  2
AcDbPolyline
  3
AutoCAD 2000
 90
    32768
280
     0
281
     1
  0
CLASS
  1
HATCH
  2
AcDbHatch
  3
AutoCAD 2000
 90
    32768
280
     0
281
     1
  0
CLASS
  1
ACDBPLACEHOLDER
  2
AcDbPlaceHolder
  3
ObjectDBX Classes
 90
        0
280
     0
281
     0
  0
CLASS
  1
LAYOUT
  2
AcDbLayout
  3
ObjectDBX Classes
 90
        0
280
     0
281
     0
  0
ENDSEC
  0
SECTION
  2
TABLES
  0
TABLE
  2
VPORT
  5
8
330
0
100
AcDbSymbolTable
 70
     1
  0
VPORT
  5
29
330
8
100
AcDbSymbolTableRecord
100
AcDbViewportTableRecord
  2
*ACTIVE
 70
     0
 10
0.0
 20
0.0
 11
1.0
 21
1.0
 12
8.2677165354
 22
5.8464566929
 13
0.0
 23
0.0
 14
0.5
 24
0.5
 15
0.5
 25
0.5
 16
0.0
 26
0.0
 36
1.0
 17
0.0
 27
0.0
 37
0.0
 40
11.6929133858
 41
1.4141414141
 42
50.0
 43
0.0
 44
0.0
 50
0.0
 51
0.0
 71
     0
 72
  2000
 73
     1
 74
     3
 75
     0
 76
     0
 77
     0
 78
     0
  0
ENDTAB
  0
TABLE
  2
LTYPE
  5
5
330
0
100
AcDbSymbolTable
 70
     6
  0
LTYPE
  5
14
330
5
100
AcDbSymbolTableRecord
100
AcDbLinetypeTableRecord
  2
BYBLOCK
 70
     0
  3

 72
    65
 73
     0
 40
0.0
  0
LTYPE
  5
15
330
5
100
AcDbSymbolTableRecord
100
AcDbLinetypeTableRecord
  2
BYLAYER
 70
     0
  3

 72
    65
 73
     0
 40
0.0
  0
LTYPE
  5
16
330
5
100
AcDbSymbolTableRecord
100
AcDbLinetypeTableRecord
  2
CONTINUOUS
 70
     0
  3
Solid line
 72
    65
 73
     0
 40
0.0
  0
LTYPE
  5
2A
330
5
100
AcDbSymbolTableRecord
100
AcDbLinetypeTableRecord
  2
HIDDEN
 70
     0
  3
Hidden __ __ __ __ __ __ __ __ __ __ __ __ __ __
 72
    65
 73
     2
 40
0.075
 49
0.05
 74
     0
 49
-0.025
 74
     0
  0
LTYPE
  5
2B
330
5
100
AcDbSymbolTableRecord
100
AcDbLinetypeTableRecord
  2
PHANTOM
 70
     0
  3
Phantom ______  __  __  ______  __  __  ______
 72
    65
 73
     6
 40
0.5
 49
0.25
 74
     0
 49
-0.05
 74
     0
 49
0.05
 74
     0
 49
-0.05
 74
     0
 49
0.05
 74
     0
 49
-0.05
 74
     0
  0
LTYPE
  5
2C
330
5
100
AcDbSymbolTableRecord
100
AcDbLinetypeTableRecord
  2
CENTER
 70
     0
  3
Center ____ _ ____ _ ____ _ ____ _ ____ _ ____
 72
    65
 73
     4
 40
0.4
 49
0.25
 74
     0
 49
-0.05
 74
     0
 49
0.05
 74
     0
 49
-0.05
 74
     0
  0
LTYPE
  5
2D
330
5
100
AcDbSymbolTableRecord
100
AcDbLinetypeTableRecord
  2
CENTERX2
 70
     0
  3
Center (2x) ________  __  ________  __  _____
 72
    65
 73
     4
 40
0.8
 49
0.5
 74
     0
 49
-0.1
 74
     0
 49
0.1
 74
     0
 49
-0.1
 74
     0
  0
LTYPE
  5
2E
330
5
100
AcDbSymbolTableRecord
100
AcDbLinetypeTableRecord
  2
DOT2
 70
     0
  3
Dot (.5x) ........................................
 72
    65
 73
     2
 40
0.025
 49
0.0
 74
     0
 49
-0.025
 74
     0
  0
ENDTAB
  0
TABLE
  2
LAYER
  5
2
330
0
100
AcDbSymbolTable
 70
     2
  0
LAYER
  5
10
330
2
100
AcDbSymbolTableRecord
100
AcDbLayerTableRecord
  2
0
 70
     0
 62
     7
  6
CONTINUOUS
  0
LAYER
  5
2F
330
2
100
AcDbSymbolTableRecord
100
AcDbLayerTableRecord
  2
SLD-0
 70
     0
 62
   179
  6
CONTINUOUS
  0
ENDTAB
  0
TABLE
  2
STYLE
  5
3
330
0
100
AcDbSymbolTable
 70
     1
  0
STYLE
  5
11
330
3
100
AcDbSymbolTableRecord
100
AcDbTextStyleTableRecord
  2
STANDARD
 70
     0
 40
0.0
 41
1.0
 50
0.0
 71
     0
 42
0.2
  3
txt
  4

  0
ENDTAB
  0
TABLE
  2
VIEW
  5
6
330
0
100
AcDbSymbolTable
 70
     0
  0
ENDTAB
  0
TABLE
  2
UCS
  5
7
330
0
100
AcDbSymbolTable
 70
     0
  0
ENDTAB
  0
TABLE
  2
APPID
  5
9
330
0
100
AcDbSymbolTable
 70
     1
  0
APPID
  5
12
330
9
100
AcDbSymbolTableRecord
100
AcDbRegAppTableRecord
  2
ACAD
 70
     0
  0
ENDTAB
  0
TABLE
  2
DIMSTYLE
  5
A
330
0
100
AcDbSymbolTable
 70
     1
  0
DIMSTYLE
105
27
330
A
100
AcDbSymbolTableRecord
100
AcDbDimStyleTableRecord
  2
STANDARD
 70
     0
  3

  4

  5

  6

  7

 40
1.0
 41
0.18
 42
0.0625
 43
0.38
 44
0.18
 45
0.0
 46
0.0
 47
0.0
 48
0.0
140
0.18
141
0.09
142
0.0
143
25.4
144
1.0
145
0.0
146
1.0
147
0.09
 71
     0
 72
     0
 73
     1
 74
     1
 75
     0
 76
     0
 77
     0
 78
     0
170
     0
171
     2
172
     0
173
     0
174
     0
175
     0
176
     0
177
     0
178
     0
270
     2
271
     4
272
     4
273
     2
274
     2
340
11
275
     0
280
     0
281
     0
282
     0
283
     1
284
     0
285
     0
286
     0
287
     3
288
     0
  0
ENDTAB
  0
TABLE
  2
BLOCK_RECORD
  5
1
330
0
100
AcDbSymbolTable
 70
     1
  0
BLOCK_RECORD
  5
1F
330
1
100
AcDbSymbolTableRecord
100
AcDbBlockTableRecord
  2
*MODEL_SPACE
  0
BLOCK_RECORD
  5
1B
330
1
100
AcDbSymbolTableRecord
100
AcDbBlockTableRecord
  2
*PAPER_SPACE
  0
ENDTAB
  0
ENDSEC
  0
SECTION
  2
BLOCKS
  0
BLOCK
  5
20
330
1F
100
AcDbEntity
  8
0
100
AcDbBlockBegin
  2
*MODEL_SPACE
 70
     0
 71
     0
 10
0.0
 20
0.0
 30
0.0
  3
*MODEL_SPACE
  1

  0
ENDBLK
  5
21
330
1F
100
AcDbEntity
  8
0
100
AcDbBlockEnd
  0
BLOCK
  5
1C
330
1B
100
AcDbEntity
 67
     1
  8
0
100
AcDbBlockBegin
  2
*PAPER_SPACE
 70
     0
 71
     0
 10
0.0
 20
0.0
 30
0.0
  3
*PAPER_SPACE
  1

  0
ENDBLK
  5
1D
330
1B
100
AcDbEntity
 67
     1
  8
0
100
AcDbBlockEnd
  0
ENDSEC
  0
SECTION
  2
ENTITIES
  0
CIRCLE
  5
52195741
330
1F
  8
Layer
  6
Continuous
100
AcDbCircle
 10
1.407481
 20
-1.40748
 30
0.0
 40
0.106
  0
CIRCLE
  5
a3dacd44
330
1F
  8
Layer
  6
Continuous
100
AcDbCircle
 10
-1.40748
 20
-1.40748
 30
0.0
 40
0.106
  0
CIRCLE
  5
0c567433
330
1F
  8
Layer
  6
Continuous
100
AcDbCircle
 10
-1.40748
 20
1.407481
 30
0.0
 40
0.106
  0
CIRCLE
  5
fa2bf497
330
1F
  8
Layer
  6
Continuous
100
AcDbCircle
 10
1.407481
 20
1.407481
 30
0.0
 40
0.106
  0
LINE
  5
e682acd0
330
1F
100
AcDbLine
  8
Layer
  6
Continuous
 10
0.073231
 20
0.373231
 30
0.0
 11
0.173231
 21
0.473231
 31
0.0
  0
LINE
  5
2b74bc38
330
1F
100
AcDbLine
  8
Layer
  6
Continuous
 10
0.173231
 20
0.473231
 30
0.0
 11
-0.126769
 21
0.773231
 31
0.0
  0
LINE
  5
d2448a0a
330
1F
100
AcDbLine
  8
Layer
  6
Continuous
 10
-0.126769
 20
0.773231
 30
0.0
 11
-0.226769
 21
0.673231
 31
0.0
  0
LINE
  5
29d92b2e
330
1F
100
AcDbLine
  8
Layer
  6
Continuous
 10
-0.226769
 20
0.673231
 30
0.0
 11
0.073231
 21
0.373231
 31
0.0
  0
LINE
  5
b0ab1f5a
330
1F
100
AcDbLine
  8
Layer
  6
Continuous
 10
-0.126769
 20
0.373231
 30
0.0
 11
-0.226769
 21
0.473231
 31
0.0
  0
LINE
  5
137ed0fc
330
1F
100
AcDbLine
  8
Layer
  6
Continuous
 10
-0.226769
 20
0.473231
 30
0.0
 11
-0.526769
 21
0.173231
 31
0.0
  0
LINE
  5
329d037e
330
1F
100
AcDbLine
  8
Layer
  6
Continuous
 10
-0.526769
 20
0.173231
 30
0.0
 11
-0.426769
 21
0.073231
 31
0.0
  0
LINE
  5
44d52a41
330
1F
100
AcDbLine
  8
Layer
  6
Continuous
 10
-0.426769
 20
0.073231
 30
0.0
 11
-0.126769
 21
0.373231
 31
0.0
  0
LINE
  5
d1d19bed
330
1F
100
AcDbLine
  8
Layer
  6
Continuous
 10
0.073231
 20
0.773231
 30
0.0
 11
0.173231
 21
0.873231
 31
0.0
  0
LINE
  5
d5b4900f
330
1F
100
AcDbLine
  8
Layer
  6
Continuous
 10
0.173231
 20
0.873231
 30
0.0
 11
-0.526769
 21
1.573231
 31
0.0
  0
LINE
  5
5fa351ee
330
1F
100
AcDbLine
  8
Layer
  6
Continuous
 10
-0.526769
 20
1.573231
 30
0.0
 11
-0.626769
 21
1.473231
 31
0.0
  0
LINE
  5
c900026a
330
1F
100
AcDbLine
  8
Layer
  6
Continuous
 10
-0.626769
 20
1.473231
 30
0.0
 11
0.073231
 21
0.773231
 31
0.0
  0
LINE
  5
10751410
330
1F
100
AcDbLine
  8
Layer
  6
Continuous
 10
0.773231
 20
-0.126769
 30
0.0
 11
0.873231
 21
-0.226769
 31
0.0
  0
LINE
  5
906ee3d6
330
1F
100
AcDbLine
  8
Layer
  6
Continuous
 10
0.873231
 20
-0.226769
 30
0.0
 11
1.573231
 21
0.473231
 31
0.0
  0
LINE
  5
b7ea4263
330
1F
100
AcDbLine
  8
Layer
  6
Continuous
 10
1.573231
 20
0.473231
 30
0.0
 11
1.473231
 21
0.573231
 31
0.0
  0
LINE
  5
b5028422
330
1F
100
AcDbLine
  8
Layer
  6
Continuous
 10
1.473231
 20
0.573231
 30
0.0
 11
0.773231
 21
-0.126769
 31
0.0
  0
LINE
  5
23b8ee4d
330
1F
100
AcDbLine
  8
Layer
  6
Continuous
 10
-0.126769
 20
0.773231
 30
0.0
 11
-0.226769
 21
0.873231
 31
0.0
  0
LINE
  5
306e04e0
330
1F
100
AcDbLine
  8
Layer
  6
Continuous
 10
-0.226769
 20
0.873231
 30
0.0
 11
-0.926769
 21
0.173231
 31
0.0
  0
LINE
  5
8a87b8a7
330
1F
100
AcDbLine
  8
Layer
  6
Continuous
 10
-0.926769
 20
0.173231
 30
0.0
 11
-0.826769
 21
0.073231
 31
0.0
  0
LINE
  5
586c3c56
330
1F
100
AcDbLine
  8
Layer
  6
Continuous
 10
-0.826769
 20
0.073231
 30
0.0
 11
-0.126769
 21
0.773231
 31
0.0
  0
LINE
  5
37d0a80c
330
1F
100
AcDbLine
  8
Layer
  6
Continuous
 10
-0.126769
 20
-0.826769
 30
0.0
 11
-0.226769
 21
-0.926769
 31
0.0
  0
LINE
  5
262a8878
330
1F
100
AcDbLine
  8
Layer
  6
Continuous
 10
-0.226769
 20
-0.926769
 30
0.0
 11
0.473231
 21
-1.626769
 31
0.0
  0
LINE
  5
5723a917
330
1F
100
AcDbLine
  8
Layer
  6
Continuous
 10
0.473231
 20
-1.626769
 30
0.0
 11
0.573231
 21
-1.526769
 31
0.0
  0
LINE
  5
3ca69961
330
1F
100
AcDbLine
  8
Layer
  6
Continuous
 10
0.573231
 20
-1.526769
 30
0.0
 11
-0.126769
 21
-0.826769
 31
0.0
  0
LINE
  5
d1c80b9f
330
1F
100
AcDbLine
  8
Layer
  6
Continuous
 10
0.373231
 20
-0.126769
 30
0.0
 11
0.473231
 21
-0.226769
 31
0.0
  0
LINE
  5
e521af11
330
1F
100
AcDbLine
  8
Layer
  6
Continuous
 10
0.473231
 20
-0.226769
 30
0.0
 11
0.773231
 21
0.073231
 31
0.0
  0
LINE
  5
76172e71
330
1F
100
AcDbLine
  8
Layer
  6
Continuous
 10
0.773231
 20
0.073231
 30
0.0
 11
0.673231
 21
0.173231
 31
0.0
  0
LINE
  5
f4a81aca
330
1F
100
AcDbLine
  8
Layer
  6
Continuous
 10
0.673231
 20
0.173231
 30
0.0
 11
0.373231
 21
-0.126769
 31
0.0
  0
LINE
  5
ee8d6e92
330
1F
100
AcDbLine
  8
Layer
  6
Continuous
 10
-0.126769
 20
-0.426769
 30
0.0
 11
-0.426769
 21
-0.126769
 31
0.0
  0
LINE
  5
7dab5177
330
1F
100
AcDbLine
  8
Layer
  6
Continuous
 10
-0.426769
 20
-0.126769
 30
0.0
 11
-0.526769
 21
-0.226769
 31
0.0
  0
LINE
  5
76379fd3
330
1F
100
AcDbLine
  8
Layer
  6
Continuous
 10
-0.526769
 20
-0.226769
 30
0.0
 11
-0.226769
 21
-0.526769
 31
0.0
  0
LINE
  5
01bf2344
330
1F
100
AcDbLine
  8
Layer
  6
Continuous
 10
-0.226769
 20
-0.526769
 30
0.0
 11
-0.126769
 21
-0.426769
 31
0.0
  0
LINE
  5
9166e017
330
1F
100
AcDbLine
  8
Layer
  6
Continuous
 10
0.073231
 20
1.173231
 30
0.0
 11
0.173231
 21
1.273231
 31
0.0
  0
LINE
  5
07ddc6e3
330
1F
100
AcDbLine
  8
Layer
  6
Continuous
 10
0.173231
 20
1.273231
 30
0.0
 11
-0.926769
 21
2.373231
 31
0.0
  0
LINE
  5
f36fcc18
330
1F
100
AcDbLine
  8
Layer
  6
Continuous
 10
-0.926769
 20
2.373231
 30
0.0
 11
-1.026769
 21
2.273231
 31
0.0
  0
LINE
  5
5e73fd0c
330
1F
100
AcDbLine
  8
Layer
  6
Continuous
 10
-1.026769
 20
2.273231
 30
0.0
 11
0.073231
 21
1.173231
 31
0.0
  0
LINE
  5
3a40f4b6
330
1F
100
AcDbLine
  8
Layer
  6
Continuous
 10
-0.126769
 20
1.173231
 30
0.0
 11
-0.226769
 21
1.273231
 31
0.0
  0
LINE
  5
280f0a52
330
1F
100
AcDbLine
  8
Layer
  6
Continuous
 10
-0.226769
 20
1.273231
 30
0.0
 11
-1.326769
 21
0.173231
 31
0.0
  0
LINE
  5
09ba3e49
330
1F
100
AcDbLine
  8
Layer
  6
Continuous
 10
-1.326769
 20
0.173231
 30
0.0
 11
-1.226769
 21
0.073231
 31
0.0
  0
LINE
  5
4d2e18a2
330
1F
100
AcDbLine
  8
Layer
  6
Continuous
 10
-1.226769
 20
0.073231
 30
0.0
 11
-0.126769
 21
1.173231
 31
0.0
  0
LINE
  5
082203a6
330
1F
100
AcDbLine
  8
Layer
  6
Continuous
 10
-1.226769
 20
-0.126769
 30
0.0
 11
-1.326769
 21
-0.226769
 31
0.0
  0
LINE
  5
721893e9
330
1F
100
AcDbLine
  8
Layer
  6
Continuous
 10
-1.326769
 20
-0.226769
 30
0.0
 11
-0.226769
 21
-1.326769
 31
0.0
  0
LINE
  5
7574b2e4
330
1F
100
AcDbLine
  8
Layer
  6
Continuous
 10
-0.226769
 20
-1.326769
 30
0.0
 11
-0.126769
 21
-1.226769
 31
0.0
  0
LINE
  5
bc8289bd
330
1F
100
AcDbLine
  8
Layer
  6
Continuous
 10
-0.126769
 20
-1.226769
 30
0.0
 11
-1.226769
 21
-0.126769
 31
0.0
  0
LINE
  5
603b43e1
330
1F
100
AcDbLine
  8
Layer
  6
Continuous
 10
0.073231
 20
-1.226769
 30
0.0
 11
0.173231
 21
-1.326769
 31
0.0
  0
LINE
  5
182aa166
330
1F
100
AcDbLine
  8
Layer
  6
Continuous
 10
0.173231
 20
-1.326769
 30
0.0
 11
1.273231
 21
-0.226769
 31
0.0
  0
LINE
  5
501818d3
330
1F
100
AcDbLine
  8
Layer
  6
Continuous
 10
1.273231
 20
-0.226769
 30
0.0
 11
1.173231
 21
-0.126769
 31
0.0
  0
LINE
  5
250e05c4
330
1F
100
AcDbLine
  8
Layer
  6
Continuous
 10
1.173231
 20
-0.126769
 30
0.0
 11
0.073231
 21
-1.226769
 31
0.0
  0
LINE
  5
9e5bca09
330
1F
100
AcDbLine
  8
Layer
  6
Continuous
 10
-0.526769
 20
1.173231
 30
0.0
 11
-0.626769
 21
1.273231
 31
0.0
  0
LINE
  5
c50ee05e
330
1F
100
AcDbLine
  8
Layer
  6
Continuous
 10
-0.626769
 20
1.273231
 30
0.0
 11
-1.326769
 21
0.573231
 31
0.0
  0
LINE
  5
c91d5842
330
1F
100
AcDbLine
  8
Layer
  6
Continuous
 10
-1.326769
 20
0.573231
 30
0.0
 11
-1.226769
 21
0.473231
 31
0.0
  0
LINE
  5
e6453e80
330
1F
100
AcDbLine
  8
Layer
  6
Continuous
 10
-1.226769
 20
0.473231
 30
0.0
 11
-0.526769
 21
1.173231
 31
0.0
  0
LINE
  5
f169822e
330
1F
100
AcDbLine
  8
Layer
  6
Continuous
 10
-0.926769
 20
1.173231
 30
0.0
 11
-1.026769
 21
1.273231
 31
0.0
  0
LINE
  5
12109b9b
330
1F
100
AcDbLine
  8
Layer
  6
Continuous
 10
-1.026769
 20
1.273231
 30
0.0
 11
-1.326769
 21
0.973231
 31
0.0
  0
LINE
  5
5e887034
330
1F
100
AcDbLine
  8
Layer
  6
Continuous
 10
-1.326769
 20
0.973231
 30
0.0
 11
-1.226769
 21
0.873231
 31
0.0
  0
LINE
  5
84e0b5d3
330
1F
100
AcDbLine
  8
Layer
  6
Continuous
 10
-1.226769
 20
0.873231
 30
0.0
 11
-0.926769
 21
1.173231
 31
0.0
  0
LINE
  5
8a46142e
330
1F
100
AcDbLine
  8
Layer
  6
Continuous
 10
0.473231
 20
1.173231
 30
0.0
 11
0.573231
 21
1.273231
 31
0.0
  0
LINE
  5
27c5dce2
330
1F
100
AcDbLine
  8
Layer
  6
Continuous
 10
0.573231
 20
1.273231
 30
0.0
 11
-0.126769
 21
1.973231
 31
0.0
  0
LINE
  5
0d970743
330
1F
100
AcDbLine
  8
Layer
  6
Continuous
 10
-0.126769
 20
1.973231
 30
0.0
 11
-0.226769
 21
1.873231
 31
0.0
  0
LINE
  5
ab3a986f
330
1F
100
AcDbLine
  8
Layer
  6
Continuous
 10
-0.226769
 20
1.873231
 30
0.0
 11
0.473231
 21
1.173231
 31
0.0
  0
LINE
  5
671853d8
330
1F
100
AcDbLine
  8
Layer
  6
Continuous
 10
0.873231
 20
1.173231
 30
0.0
 11
0.973231
 21
1.273231
 31
0.0
  0
LINE
  5
f88266ab
330
1F
100
AcDbLine
  8
Layer
  6
Continuous
 10
0.973231
 20
1.273231
 30
0.0
 11
0.673231
 21
1.573231
 31
0.0
  0
LINE
  5
bf9f7bd8
330
1F
100
AcDbLine
  8
Layer
  6
Continuous
 10
0.673231
 20
1.573231
 30
0.0
 11
0.573231
 21
1.473231
 31
0.0
  0
LINE
  5
ad5f3b22
330
1F
100
AcDbLine
  8
Layer
  6
Continuous
 10
0.573231
 20
1.473231
 30
0.0
 11
0.873231
 21
1.173231
 31
0.0
  0
LINE
  5
2ec9e5af
330
1F
100
AcDbLine
  8
Layer
  6
Continuous
 10
1.173231
 20
-0.526769
 30
0.0
 11
1.273231
 21
-0.626769
 31
0.0
  0
LINE
  5
1bb9177b
330
1F
100
AcDbLine
  8
Layer
  6
Continuous
 10
1.273231
 20
-0.626769
 30
0.0
 11
1.973231
 21
0.073231
 31
0.0
  0
LINE
  5
3275597f
330
1F
100
AcDbLine
  8
Layer
  6
Continuous
 10
1.973231
 20
0.073231
 30
0.0
 11
1.873231
 21
0.173231
 31
0.0
  0
LINE
  5
804a7a2d
330
1F
100
AcDbLine
  8
Layer
  6
Continuous
 10
1.873231
 20
0.173231
 30
0.0
 11
1.173231
 21
-0.526769
 31
0.0
  0
LINE
  5
299c66a6
330
1F
100
AcDbLine
  8
Layer
  6
Continuous
 10
1.173231
 20
-0.926769
 30
0.0
 11
1.273231
 21
-1.026769
 31
0.0
  0
LINE
  5
93d28be4
330
1F
100
AcDbLine
  8
Layer
  6
Continuous
 10
1.273231
 20
-1.026769
 30
0.0
 11
1.573231
 21
-0.726769
 31
0.0
  0
LINE
  5
9527e416
330
1F
100
AcDbLine
  8
Layer
  6
Continuous
 10
1.573231
 20
-0.726769
 30
0.0
 11
1.473231
 21
-0.626769
 31
0.0
  0
LINE
  5
5b9779c7
330
1F
100
AcDbLine
  8
Layer
  6
Continuous
 10
1.473231
 20
-0.626769
 30
0.0
 11
1.173231
 21
-0.926769
 31
0.0
  0
LINE
  5
aa8e9ed6
330
1F
100
AcDbLine
  8
Layer
  6
Continuous
 10
-1.226769
 20
-0.526769
 30
0.0
 11
-1.326769
 21
-0.626769
 31
0.0
  0
LINE
  5
c060274a
330
1F
100
AcDbLine
  8
Layer
  6
Continuous
 10
-1.326769
 20
-0.626769
 30
0.0
 11
-0.626769
 21
-1.326769
 31
0.0
  0
LINE
  5
d432c9e5
330
1F
100
AcDbLine
  8
Layer
  6
Continuous
 10
-0.626769
 20
-1.326769
 30
0.0
 11
-0.526769
 21
-1.226769
 31
0.0
  0
LINE
  5
17115054
330
1F
100
AcDbLine
  8
Layer
  6
Continuous
 10
-0.526769
 20
-1.226769
 30
0.0
 11
-1.226769
 21
-0.526769
 31
0.0
  0
LINE
  5
f298f9f9
330
1F
100
AcDbLine
  8
Layer
  6
Continuous
 10
-1.226769
 20
-0.926769
 30
0.0
 11
-1.326769
 21
-1.026769
 31
0.0
  0
LINE
  5
9e9dbc09
330
1F
100
AcDbLine
  8
Layer
  6
Continuous
 10
-1.326769
 20
-1.026769
 30
0.0
 11
-1.026769
 21
-1.326769
 31
0.0
  0
LINE
  5
10746f0e
330
1F
100
AcDbLine
  8
Layer
  6
Continuous
 10
-1.026769
 20
-1.326769
 30
0.0
 11
-0.926769
 21
-1.226769
 31
0.0
  0
LINE
  5
a10a2230
330
1F
100
AcDbLine
  8
Layer
  6
Continuous
 10
-0.926769
 20
-1.226769
 30
0.0
 11
-1.226769
 21
-0.926769
 31
0.0
  0
ENDSEC
  0
SECTION
  2
OBJECTS
  0
DICTIONARY
  5
C
330
0
100
AcDbDictionary
  3
ACAD_GROUP
350
D
  3
ACAD_LAYOUT
350
1A
  3
ACAD_MLINESTYLE
350
17
  3
ACAD_PLOTSETTINGS
350
19
1001
ACAD
1000
TREAT_AS_HARD
1070
     0
  0
DICTIONARY
  5
D
102
{ACAD_REACTORS
330
C
102
}
330
C
100
AcDbDictionary
1001
ACAD
1000
TREAT_AS_HARD
1070
     0
  0
DICTIONARY
  5
1A
102
{ACAD_REACTORS
330
C
102
}
330
C
100
AcDbDictionary
1001
ACAD
1000
TREAT_AS_HARD
1070
     0
  0
DICTIONARY
  5
17
102
{ACAD_REACTORS
330
C
102
}
330
C
100
AcDbDictionary
  3
STANDARD
350
18
1001
ACAD
1000
TREAT_AS_HARD
1070
     0
  0
DICTIONARY
  5
19
102
{ACAD_REACTORS
330
C
102
}
330
C
100
AcDbDictionary
1001
ACAD
1000
TREAT_AS_HARD
1070
     0
  0
MLINESTYLE
  5
18
102
{ACAD_REACTORS
330
17
102
}
330
17
100
AcDbMlineStyle
  2
Standard
 70
     0
  3

 62
   256
 51
90.0
 52
90.0
 71
     2
 49
0.5
 62
   256
  6
BYLAYER
 49
-0.5
 62
   256
  6
BYLAYER
  0
ENDSEC
  0
EOF
