  0
SECTION
  2
HEADER
  9
$ACADVER
  1
AC1012
  9
$DWGCODEPAGE
  3
ansi_1252
  9
$INSUNITS
  4

  9
$INSBASE
 10
0.0
 20
0.0
 30
0.0
  9
$EXTMIN
 10
-1000.0
 20
-1000.0
 30
0.0
  9
$EXTMAX
 10
1000.0
 20
1000.0
 30
0.0
  9
$LIMMIN
 10
0.0
 20
0.0
  9
$LIMMAX
 10
0.0
 20
0.0
  9
$ORTHOMODE
 70
     0
  9
$REGENMODE
 70
     1
  9
$FILLMODE
 70
     1
  9
$QTEXTMODE
 70
     0
  9
$MIRRTEXT
 70
     1
  9
$DRAGMODE
 70
     2
  9
$LTSCALE
 40
1.0
  9
$OSMODE
 70
    37
  9
$ATTMODE
 70
     1
  9
$TEXTSIZE
 40
0.1377952756
  9
$TRACEWID
 40
0.05
  9
$TEXTSTYLE
  7
STANDARD
  9
$CLAYER
  8
0
  9
$CELTYPE
  6
BYLAYER
  9
$CECOLOR
 62
   256
  9
$CELTSCALE
 40
1.0
  9
$DELOBJ
 70
     1
  9
$DISPSILH
 70
     0
  9
$DIMSCALE
 40
1.0
  9
$DIMASZ
 40
0.2362204724
  9
$DIMEXO
 40
0.0393700787
  9
$DIMDLI
 40
0.38
  9
$DIMRND
 40
0.0
  9
$DIMDLE
 40
0.0
  9
$DIMEXE
 40
0.0393700787
  9
$DIMTP
 40
0.0
  9
$DIMTM
 40
0.0
  9
$DIMTXT
 40
0.1377952756
  9
$DIMCEN
 40
0.09
  9
$DIMTSZ
 40
0.0
  9
$DIMTOL
 70
     0
  9
$DIMLIM
 70
     0
  9
$DIMTIH
 70
     1
  9
$DIMTOH
 70
     1
  9
$DIMSE1
 70
     0
  9
$DIMSE2
 70
     0
  9
$DIMTAD
 70
     0
  9
$DIMZIN
 70
     1
  9
$DIMBLK
  1

  9
$DIMASO
 70
     1
  9
$DIMSHO
 70
     1
  9
$DIMPOST
  1

  9
$DIMAPOST
  1

  9
$DIMALT
 70
     0
  9
$DIMALTD
 70
     2
  9
$DIMALTF
 40
25.4
  9
$DIMLFAC
 40
1.0
  9
$DIMTOFL
 70
     0
  9
$DIMTVP
 40
0.0
  9
$DIMTIX
 70
     0
  9
$DIMSOXD
 70
     0
  9
$DIMSAH
 70
     0
  9
$DIMBLK1
  1

  9
$DIMBLK2
  1

  9
$DIMSTYLE
  2
STANDARD
  9
$DIMCLRD
 70
     0
  9
$DIMCLRE
 70
     0
  9
$DIMCLRT
 70
     0
  9
$DIMTFAC
 40
1.0
  9
$DIMGAP
 40
0.06
  9
$DIMJUST
 70
     0
  9
$DIMSD1
 70
     0
  9
$DIMSD2
 70
     0
  9
$DIMTOLJ
 70
     1
  9
$DIMTZIN
 70
     1
  9
$DIMALTZ
 70
     0
  9
$DIMALTTZ
 70
     0
  9
$DIMFIT
 70
     3
  9
$DIMUPT
 70
     0
  9
$DIMUNIT
 70
     2
  9
$DIMDEC
 70
     4
  9
$DIMTDEC
 70
     4
  9
$DIMALTU
 70
     2
  9
$DIMALTTD
 70
     2
  9
$DIMTXSTY
  7
STANDARD
  9
$DIMAUNIT
 70
     0
  9
$LUNITS
 70
     2
  9
$LUPREC
 70
     4
  9
$SKETCHINC
 40
0.1
  9
$FILLETRAD
 40
0.5
  9
$AUNITS
 70
     0
  9
$AUPREC
 70
     0
  9
$MENU
  1
.
  9
$ELEVATION
 40
0.0
  9
$PELEVATION
 40
0.0
  9
$THICKNESS
 40
0.0
  9
$LIMCHECK
 70
     0
  9
$CHAMFERA
 40
0.5
  9
$CHAMFERB
 40
0.5
  9
$CHAMFERC
 40
1.0
  9
$CHAMFERD
 40
0.0
  9
$SKPOLY
 70
     0
  9
$TDCREATE
 40
2457059.4862175
  9
$TDUPDATE
 40
2457059.486217511
  9
$TDINDWG
 40
0.0000000116
  9
$TDUSRTIMER
 40
0.0000000116
  9
$USRTIMER
 70
     1
  9
$ANGBASE
 50
0.0
  9
$ANGDIR
 70
     0
  9
$PDMODE
 70
     0
  9
$PDSIZE
 40
-1.0
  9
$PLINEWID
 40
0.0
  9
$COORDS
 70
     1
  9
$SPLFRAME
 70
     0
  9
$SPLINETYPE
 70
     6
  9
$SPLINESEGS
 70
     8
  9
$ATTDIA
 70
     0
  9
$ATTREQ
 70
     1
  9
$HANDLING
 70
     1
  9
$HANDSEED
  5
48
  9
$SURFTAB1
 70
     6
  9
$SURFTAB2
 70
     6
  9
$SURFTYPE
 70
     6
  9
$SURFU
 70
     6
  9
$SURFV
 70
     6
  9
$UCSNAME
  2

  9
$UCSORG
 10
0.0
 20
0.0
 30
0.0
  9
$UCSXDIR
 10
1.0
 20
0.0
 30
0.0
  9
$UCSYDIR
 10
0.0
 20
1.0
 30
0.0
  9
$PUCSNAME
  2

  9
$PUCSORG
 10
0.0
 20
0.0
 30
0.0
  9
$PUCSXDIR
 10
1.0
 20
0.0
 30
0.0
  9
$PUCSYDIR
 10
0.0
 20
1.0
 30
0.0
  9
$USERI1
 70
     0
  9
$USERI2
 70
     0
  9
$USERI3
 70
     0
  9
$USERI4
 70
     0
  9
$USERI5
 70
     0
  9
$USERR1
 40
0.0
  9
$USERR2
 40
0.0
  9
$USERR3
 40
0.0
  9
$USERR4
 40
0.0
  9
$USERR5
 40
0.0
  9
$WORLDVIEW
 70
     1
  9
$SHADEDGE
 70
     3
  9
$SHADEDIF
 70
    70
  9
$TILEMODE
 70
     1
  9
$MAXACTVP
 70
    64
  9
$PINSBASE
 10
0.0
 20
0.0
 30
0.0
  9
$PLIMCHECK
 70
     0
  9
$PEXTMIN
 10
1.0000000000E+20
 20
1.0000000000E+20
 30
1.0000000000E+20
  9
$PEXTMAX
 10
-1.0000000000E+20
 20
-1.0000000000E+20
 30
-1.0000000000E+20
  9
$PLIMMIN
 10
0.0
 20
0.0
  9
$PLIMMAX
 10
12.0
 20
9.0
  9
$UNITMODE
 70
     0
  9
$VISRETAIN
 70
     1
  9
$PLINEGEN
 70
     0
  9
$PSLTSCALE
 70
     1
  9
$TREEDEPTH
 70
  3020
  9
$PICKSTYLE
 70
     1
  9
$CMLSTYLE
  2
STANDARD
  9
$CMLJUST
 70
     0
  9
$CMLSCALE
 40
1.0
  9
$SAVEIMAGES
 70
     1
  0
ENDSEC
  0
SECTION
  2
CLASSES
  0
CLASS
  1
ACDBDICTIONARYWDFLT
  2
AcDbDictionaryWithDefault
  3
ObjectDBX Classes
 90
    32768
280
     0
281
     0
  0
CLASS
  1
XRECORD
  2
AcDbXrecord
  3
AutoCAD 2000
 90
    32768
280
     0
281
     0
  0
CLASS
  1
LWPOLYLINE
  2
AcDbPolyline
  3
AutoCAD 2000
 90
    32768
280
     0
281
     1
  0
CLASS
  1
HATCH
  2
AcDbHatch
  3
AutoCAD 2000
 90
    32768
280
     0
281
     1
  0
CLASS
  1
ACDBPLACEHOLDER
  2
AcDbPlaceHolder
  3
ObjectDBX Classes
 90
        0
280
     0
281
     0
  0
CLASS
  1
LAYOUT
  2
AcDbLayout
  3
ObjectDBX Classes
 90
        0
280
     0
281
     0
  0
ENDSEC
  0
SECTION
  2
TABLES
  0
TABLE
  2
VPORT
  5
8
330
0
100
AcDbSymbolTable
 70
     1
  0
VPORT
  5
29
330
8
100
AcDbSymbolTableRecord
100
AcDbViewportTableRecord
  2
*ACTIVE
 70
     0
 10
0.0
 20
0.0
 11
1.0
 21
1.0
 12
8.2677165354
 22
5.8464566929
 13
0.0
 23
0.0
 14
0.5
 24
0.5
 15
0.5
 25
0.5
 16
0.0
 26
0.0
 36
1.0
 17
0.0
 27
0.0
 37
0.0
 40
11.6929133858
 41
1.4141414141
 42
50.0
 43
0.0
 44
0.0
 50
0.0
 51
0.0
 71
     0
 72
  2000
 73
     1
 74
     3
 75
     0
 76
     0
 77
     0
 78
     0
  0
ENDTAB
  0
TABLE
  2
LTYPE
  5
5
330
0
100
AcDbSymbolTable
 70
     6
  0
LTYPE
  5
14
330
5
100
AcDbSymbolTableRecord
100
AcDbLinetypeTableRecord
  2
BYBLOCK
 70
     0
  3

 72
    65
 73
     0
 40
0.0
  0
LTYPE
  5
15
330
5
100
AcDbSymbolTableRecord
100
AcDbLinetypeTableRecord
  2
BYLAYER
 70
     0
  3

 72
    65
 73
     0
 40
0.0
  0
LTYPE
  5
16
330
5
100
AcDbSymbolTableRecord
100
AcDbLinetypeTableRecord
  2
CONTINUOUS
 70
     0
  3
Solid line
 72
    65
 73
     0
 40
0.0
  0
LTYPE
  5
2A
330
5
100
AcDbSymbolTableRecord
100
AcDbLinetypeTableRecord
  2
HIDDEN
 70
     0
  3
Hidden __ __ __ __ __ __ __ __ __ __ __ __ __ __
 72
    65
 73
     2
 40
0.075
 49
0.05
 74
     0
 49
-0.025
 74
     0
  0
LTYPE
  5
2B
330
5
100
AcDbSymbolTableRecord
100
AcDbLinetypeTableRecord
  2
PHANTOM
 70
     0
  3
Phantom ______  __  __  ______  __  __  ______
 72
    65
 73
     6
 40
0.5
 49
0.25
 74
     0
 49
-0.05
 74
     0
 49
0.05
 74
     0
 49
-0.05
 74
     0
 49
0.05
 74
     0
 49
-0.05
 74
     0
  0
LTYPE
  5
2C
330
5
100
AcDbSymbolTableRecord
100
AcDbLinetypeTableRecord
  2
CENTER
 70
     0
  3
Center ____ _ ____ _ ____ _ ____ _ ____ _ ____
 72
    65
 73
     4
 40
0.4
 49
0.25
 74
     0
 49
-0.05
 74
     0
 49
0.05
 74
     0
 49
-0.05
 74
     0
  0
LTYPE
  5
2D
330
5
100
AcDbSymbolTableRecord
100
AcDbLinetypeTableRecord
  2
CENTERX2
 70
     0
  3
Center (2x) ________  __  ________  __  _____
 72
    65
 73
     4
 40
0.8
 49
0.5
 74
     0
 49
-0.1
 74
     0
 49
0.1
 74
     0
 49
-0.1
 74
     0
  0
LTYPE
  5
2E
330
5
100
AcDbSymbolTableRecord
100
AcDbLinetypeTableRecord
  2
DOT2
 70
     0
  3
Dot (.5x) ........................................
 72
    65
 73
     2
 40
0.025
 49
0.0
 74
     0
 49
-0.025
 74
     0
  0
ENDTAB
  0
TABLE
  2
LAYER
  5
2
330
0
100
AcDbSymbolTable
 70
     2
  0
LAYER
  5
10
330
2
100
AcDbSymbolTableRecord
100
AcDbLayerTableRecord
  2
0
 70
     0
 62
     7
  6
CONTINUOUS
  0
LAYER
  5
2F
330
2
100
AcDbSymbolTableRecord
100
AcDbLayerTableRecord
  2
GRAIN DIRECTION
 70
     0
 62
   2
  6
CONTINUOUS
  0
ENDTAB
  0
TABLE
  2
STYLE
  5
3
330
0
100
AcDbSymbolTable
 70
     1
  0
STYLE
  5
11
330
3
100
AcDbSymbolTableRecord
100
AcDbTextStyleTableRecord
  2
STANDARD
 70
     0
 40
0.0
 41
1.0
 50
0.0
 71
     0
 42
0.2
  3
txt
  4

  0
ENDTAB
  0
TABLE
  2
VIEW
  5
6
330
0
100
AcDbSymbolTable
 70
     0
  0
ENDTAB
  0
TABLE
  2
UCS
  5
7
330
0
100
AcDbSymbolTable
 70
     0
  0
ENDTAB
  0
TABLE
  2
APPID
  5
9
330
0
100
AcDbSymbolTable
 70
     1
  0
APPID
  5
12
330
9
100
AcDbSymbolTableRecord
100
AcDbRegAppTableRecord
  2
ACAD
 70
     0
  0
ENDTAB
  0
TABLE
  2
DIMSTYLE
  5
A
330
0
100
AcDbSymbolTable
 70
     1
  0
DIMSTYLE
105
27
330
A
100
AcDbSymbolTableRecord
100
AcDbDimStyleTableRecord
  2
STANDARD
 70
     0
  3

  4

  5

  6

  7

 40
1.0
 41
0.18
 42
0.0625
 43
0.38
 44
0.18
 45
0.0
 46
0.0
 47
0.0
 48
0.0
140
0.18
141
0.09
142
0.0
143
25.4
144
1.0
145
0.0
146
1.0
147
0.09
 71
     0
 72
     0
 73
     1
 74
     1
 75
     0
 76
     0
 77
     0
 78
     0
170
     0
171
     2
172
     0
173
     0
174
     0
175
     0
176
     0
177
     0
178
     0
270
     2
271
     4
272
     4
273
     2
274
     2
340
11
275
     0
280
     0
281
     0
282
     0
283
     1
284
     0
285
     0
286
     0
287
     3
288
     0
  0
ENDTAB
  0
TABLE
  2
BLOCK_RECORD
  5
1
330
0
100
AcDbSymbolTable
 70
     1
  0
BLOCK_RECORD
  5
1F
330
1
100
AcDbSymbolTableRecord
100
AcDbBlockTableRecord
  2
*MODEL_SPACE
  0
BLOCK_RECORD
  5
1B
330
1
100
AcDbSymbolTableRecord
100
AcDbBlockTableRecord
  2
*PAPER_SPACE
  0
ENDTAB
  0
ENDSEC
  0
SECTION
  2
BLOCKS
  0
BLOCK
  5
20
330
1F
100
AcDbEntity
  8
0
100
AcDbBlockBegin
  2
*MODEL_SPACE
 70
     0
 71
     0
 10
0.0
 20
0.0
 30
0.0
  3
*MODEL_SPACE
  1

  0
ENDBLK
  5
21
330
1F
100
AcDbEntity
  8
0
100
AcDbBlockEnd
  0
BLOCK
  5
1C
330
1B
100
AcDbEntity
 67
     1
  8
0
100
AcDbBlockBegin
  2
*PAPER_SPACE
 70
     0
 71
     0
 10
0.0
 20
0.0
 30
0.0
  3
*PAPER_SPACE
  1

  0
ENDBLK
  5
1D
330
1B
100
AcDbEntity
 67
     1
  8
0
100
AcDbBlockEnd
  0
ENDSEC
  0
SECTION
  2
ENTITIES
  0
CIRCLE
  5
97cbdd55
330
1F
  8
Layer
100
AcDbEntity
  6
CONTINUOUS
100
AcDbCircle
 10
7.027559055118111
 20
7.027559055118111
 30
0.0
 40
0.0885826772
  0
CIRCLE
  5
3a4d7590
330
1F
  8
Layer
100
AcDbEntity
  6
CONTINUOUS
100
AcDbCircle
 10
0.9448818897637796
 20
7.027559055118111
 30
0.0
 40
0.0885826772
  0
CIRCLE
  5
7df0277c
330
1F
  8
Layer
100
AcDbEntity
  6
CONTINUOUS
100
AcDbCircle
 10
7.027559055118111
 20
0.9448818897637796
 30
0.0
 40
0.0885826772
  0
CIRCLE
  5
0e4411f5
330
1F
  8
Layer
100
AcDbEntity
  6
CONTINUOUS
100
AcDbCircle
 10
0.9448818897637796
 20
0.9448818897637796
 30
0.0
 40
0.0885826772
  0
CIRCLE
  5
34a018aa
330
1F
  8
Layer
100
AcDbEntity
  6
CONTINUOUS
100
AcDbCircle
 10
0.9448818897637796
 20
0.9448818897637796
 30
0.0
 40
0.0885826772
  0
CIRCLE
  5
c631ed20
330
1F
  8
Layer
100
AcDbEntity
  6
CONTINUOUS
100
AcDbCircle
 10
7.027559055118111
 20
0.9448818897637796
 30
0.0
 40
0.0885826772
  0
CIRCLE
  5
86c78216
330
1F
  8
Layer
100
AcDbEntity
  6
CONTINUOUS
100
AcDbCircle
 10
0.9448818897637796
 20
7.027559055118111
 30
0.0
 40
0.0885826772
  0
CIRCLE
  5
2cf85a59
330
1F
  8
Layer
100
AcDbEntity
  6
CONTINUOUS
100
AcDbCircle
 10
7.027559055118111
 20
7.027559055118111
 30
0.0
 40
0.0885826772
  0
CIRCLE
  5
00b16bc8
330
1F
  8
Layer
100
AcDbEntity
  6
CONTINUOUS
100
AcDbCircle
 10
7.6700031770524895
 20
3.34575950221015
 30
0.0
 40
0.1968503937
  0
CIRCLE
  5
512b865c
330
1F
  8
Layer
100
AcDbEntity
  6
CONTINUOUS
100
AcDbCircle
 10
7.531552187572235
 20
2.7690696275592535
 30
0.0
 40
0.1968503937
  0
CIRCLE
  5
b6becd4f
330
1F
  8
Layer
100
AcDbEntity
  6
CONTINUOUS
100
AcDbCircle
 10
7.304591587483595
 20
2.2211382687009245
 30
0.0
 40
0.1968503937
  0
CIRCLE
  5
49eedbc9
330
1F
  8
Layer
100
AcDbEntity
  6
CONTINUOUS
100
AcDbCircle
 10
6.994709899999801
 20
1.7154573141701794
 30
0.0
 40
0.1968503937
  0
CIRCLE
  5
24f08c7a
330
1F
  8
Layer
100
AcDbEntity
  6
CONTINUOUS
100
AcDbCircle
 10
6.609537440705061
 20
1.2644783073264336
 30
0.0
 40
0.1968503937
  0
CIRCLE
  5
10a1e65a
330
1F
  8
Layer
100
AcDbEntity
  6
CONTINUOUS
100
AcDbCircle
 10
6.158558433861316
 20
0.8793058480316942
 30
0.0
 40
0.1968503937
  0
CIRCLE
  5
e310aae2
330
1F
  8
Layer
100
AcDbEntity
  6
CONTINUOUS
100
AcDbCircle
 10
5.65287747933057
 20
0.5694241605479005
 30
0.0
 40
0.1968503937
  0
CIRCLE
  5
6260a86b
330
1F
  8
Layer
100
AcDbEntity
  6
CONTINUOUS
100
AcDbCircle
 10
5.104946120472242
 20
0.34246356045926163
 30
0.0
 40
0.1968503937
  0
CIRCLE
  5
18057e00
330
1F
  8
Layer
100
AcDbEntity
  6
CONTINUOUS
100
AcDbCircle
 10
4.5282562458213445
 20
0.20401257097900638
 30
0.0
 40
0.1968503937
  0
CIRCLE
  5
f7e470ca
330
1F
  8
Layer
100
AcDbEntity
  6
CONTINUOUS
100
AcDbCircle
 10
3.9370078740157473
 20
0.15748031496062964
 30
0.0
 40
0.1968503937
  0
CIRCLE
  5
1cd737e8
330
1F
  8
Layer
100
AcDbEntity
  6
CONTINUOUS
100
AcDbCircle
 10
3.3457595022101505
 20
0.20401257097900682
 30
0.0
 40
0.1968503937
  0
CIRCLE
  5
cf357c97
330
1F
  8
Layer
100
AcDbEntity
  6
CONTINUOUS
100
AcDbCircle
 10
2.7690696275592535
 20
0.3424635604592621
 30
0.0
 40
0.1968503937
  0
CIRCLE
  5
b9d3c961
330
1F
  8
Layer
100
AcDbEntity
  6
CONTINUOUS
100
AcDbCircle
 10
2.221138268700925
 20
0.5694241605479009
 30
0.0
 40
0.1968503937
  0
CIRCLE
  5
12015c58
330
1F
  8
Layer
100
AcDbEntity
  6
CONTINUOUS
100
AcDbCircle
 10
1.7154573141701799
 20
0.8793058480316951
 30
0.0
 40
0.1968503937
  0
CIRCLE
  5
6d8725b6
330
1F
  8
Layer
100
AcDbEntity
  6
CONTINUOUS
100
AcDbCircle
 10
1.2644783073264336
 20
1.2644783073264345
 30
0.0
 40
0.1968503937
  0
CIRCLE
  5
9cc2337b
330
1F
  8
Layer
100
AcDbEntity
  6
CONTINUOUS
100
AcDbCircle
 10
0.8793058480316942
 20
1.7154573141701808
 30
0.0
 40
0.1968503937
  0
CIRCLE
  5
ccb51cf6
330
1F
  8
Layer
100
AcDbEntity
  6
CONTINUOUS
100
AcDbCircle
 10
0.5694241605479005
 20
2.221138268700926
 30
0.0
 40
0.1968503937
  0
CIRCLE
  5
1941be6b
330
1F
  8
Layer
100
AcDbEntity
  6
CONTINUOUS
100
AcDbCircle
 10
0.34246356045926163
 20
2.7690696275592543
 30
0.0
 40
0.1968503937
  0
CIRCLE
  5
09f3b21a
330
1F
  8
Layer
100
AcDbEntity
  6
CONTINUOUS
100
AcDbCircle
 10
0.20401257097900638
 20
3.345759502210152
 30
0.0
 40
0.1968503937
  0
CIRCLE
  5
72677a56
330
1F
  8
Layer
100
AcDbEntity
  6
CONTINUOUS
100
AcDbCircle
 10
0.15748031496062964
 20
3.937007874015748
 30
0.0
 40
0.1968503937
  0
CIRCLE
  5
ec2d1927
330
1F
  8
Layer
100
AcDbEntity
  6
CONTINUOUS
100
AcDbCircle
 10
0.20401257097900682
 20
4.528256245821345
 30
0.0
 40
0.1968503937
  0
CIRCLE
  5
a96935ce
330
1F
  8
Layer
100
AcDbEntity
  6
CONTINUOUS
100
AcDbCircle
 10
0.3424635604592621
 20
5.104946120472243
 30
0.0
 40
0.1968503937
  0
CIRCLE
  5
5e49d364
330
1F
  8
Layer
100
AcDbEntity
  6
CONTINUOUS
100
AcDbCircle
 10
0.5694241605479009
 20
5.652877479330572
 30
0.0
 40
0.1968503937
  0
CIRCLE
  5
843ec96e
330
1F
  8
Layer
100
AcDbEntity
  6
CONTINUOUS
100
AcDbCircle
 10
0.8793058480316951
 20
6.158558433861316
 30
0.0
 40
0.1968503937
  0
CIRCLE
  5
a39d3f37
330
1F
  8
Layer
100
AcDbEntity
  6
CONTINUOUS
100
AcDbCircle
 10
1.2644783073264345
 20
6.609537440705062
 30
0.0
 40
0.1968503937
  0
CIRCLE
  5
967ab45b
330
1F
  8
Layer
100
AcDbEntity
  6
CONTINUOUS
100
AcDbCircle
 10
1.7154573141701808
 20
6.994709899999801
 30
0.0
 40
0.1968503937
  0
CIRCLE
  5
0f8fa633
330
1F
  8
Layer
100
AcDbEntity
  6
CONTINUOUS
100
AcDbCircle
 10
2.221138268700926
 20
7.304591587483596
 30
0.0
 40
0.1968503937
  0
CIRCLE
  5
d905d3e6
330
1F
  8
Layer
100
AcDbEntity
  6
CONTINUOUS
100
AcDbCircle
 10
2.7690696275592543
 20
7.531552187572235
 30
0.0
 40
0.1968503937
  0
CIRCLE
  5
0a90d220
330
1F
  8
Layer
100
AcDbEntity
  6
CONTINUOUS
100
AcDbCircle
 10
3.345759502210151
 20
7.6700031770524895
 30
0.0
 40
0.1968503937
  0
CIRCLE
  5
7adce08a
330
1F
  8
Layer
100
AcDbEntity
  6
CONTINUOUS
100
AcDbCircle
 10
3.937007874015748
 20
7.716535433070867
 30
0.0
 40
0.1968503937
  0
CIRCLE
  5
1913e564
330
1F
  8
Layer
100
AcDbEntity
  6
CONTINUOUS
100
AcDbCircle
 10
4.528256245821345
 20
7.6700031770524895
 30
0.0
 40
0.1968503937
  0
CIRCLE
  5
ba88f0d2
330
1F
  8
Layer
100
AcDbEntity
  6
CONTINUOUS
100
AcDbCircle
 10
5.104946120472242
 20
7.531552187572235
 30
0.0
 40
0.1968503937
  0
CIRCLE
  5
796d09fd
330
1F
  8
Layer
100
AcDbEntity
  6
CONTINUOUS
100
AcDbCircle
 10
5.652877479330571
 20
7.304591587483595
 30
0.0
 40
0.1968503937
  0
CIRCLE
  5
2059a7cc
330
1F
  8
Layer
100
AcDbEntity
  6
CONTINUOUS
100
AcDbCircle
 10
6.158558433861316
 20
6.994709899999801
 30
0.0
 40
0.1968503937
  0
CIRCLE
  5
ee81a3cb
330
1F
  8
Layer
100
AcDbEntity
  6
CONTINUOUS
100
AcDbCircle
 10
6.609537440705062
 20
6.609537440705061
 30
0.0
 40
0.1968503937
  0
CIRCLE
  5
6420b53c
330
1F
  8
Layer
100
AcDbEntity
  6
CONTINUOUS
100
AcDbCircle
 10
6.994709899999801
 20
6.158558433861316
 30
0.0
 40
0.1968503937
  0
CIRCLE
  5
90aa579d
330
1F
  8
Layer
100
AcDbEntity
  6
CONTINUOUS
100
AcDbCircle
 10
7.304591587483596
 20
5.65287747933057
 30
0.0
 40
0.1968503937
  0
CIRCLE
  5
71f124fb
330
1F
  8
Layer
100
AcDbEntity
  6
CONTINUOUS
100
AcDbCircle
 10
7.531552187572235
 20
5.104946120472242
 30
0.0
 40
0.1968503937
  0
CIRCLE
  5
fda9f68f
330
1F
  8
Layer
100
AcDbEntity
  6
CONTINUOUS
100
AcDbCircle
 10
7.6700031770524895
 20
4.528256245821345
 30
0.0
 40
0.1968503937
  0
CIRCLE
  5
a2b85a85
330
1F
  8
Layer
100
AcDbEntity
  6
CONTINUOUS
100
AcDbCircle
 10
7.716535433070867
 20
3.937007874015748
 30
0.0
 40
0.1968503937
  0
CIRCLE
  5
4361d83e
330
1F
  8
Layer
100
AcDbEntity
  6
CONTINUOUS
100
AcDbCircle
 10
7.190948245759248
 20
3.346504757358839
 30
0.0
 40
0.1968503937
  0
CIRCLE
  5
e1f80f46
330
1F
  8
Layer
100
AcDbEntity
  6
CONTINUOUS
100
AcDbCircle
 10
7.033217682430627
 20
2.7749808967388665
 30
0.0
 40
0.1968503937
  0
CIRCLE
  5
5ca5d390
330
1F
  8
Layer
100
AcDbEntity
  6
CONTINUOUS
100
AcDbCircle
 10
6.775972388289636
 20
2.2408055392875537
 30
0.0
 40
0.1968503937
  0
CIRCLE
  5
24e9ce88
330
1F
  8
Layer
100
AcDbEntity
  6
CONTINUOUS
100
AcDbCircle
 10
6.427480438752099
 20
1.7611475205143354
 30
0.0
 40
0.1968503937
  0
CIRCLE
  5
dc5fdae9
330
1F
  8
Layer
100
AcDbEntity
  6
CONTINUOUS
100
AcDbCircle
 10
5.998942651816284
 20
1.3514234438065151
 30
0.0
 40
0.1968503937
  0
CIRCLE
  5
9e4626a7
330
1F
  8
Layer
100
AcDbEntity
  6
CONTINUOUS
100
AcDbCircle
 10
5.504132584556373
 20
1.0248021781115746
 30
0.0
 40
0.1968503937
  0
CIRCLE
  5
b420d5f4
330
1F
  8
Layer
100
AcDbEntity
  6
CONTINUOUS
100
AcDbCircle
 10
4.958953839665179
 20
0.7917815996538224
 30
0.0
 40
0.1968503937
  0
CIRCLE
  5
e8ada11b
330
1F
  8
Layer
100
AcDbEntity
  6
CONTINUOUS
100
AcDbCircle
 10
4.380928910578072
 20
0.6598511815548611
 30
0.0
 40
0.1968503937
  0
CIRCLE
  5
73c25258
330
1F
  8
Layer
100
AcDbEntity
  6
CONTINUOUS
100
AcDbCircle
 10
3.788635994116407
 20
0.633251276005101
 30
0.0
 40
0.1968503937
  0
CIRCLE
  5
59101e25
330
1F
  8
Layer
100
AcDbEntity
  6
CONTINUOUS
100
AcDbCircle
 10
3.2011118719554954
 20
0.7128368258553861
 30
0.0
 40
0.1968503937
  0
CIRCLE
  5
a29be63d
330
1F
  8
Layer
100
AcDbEntity
  6
CONTINUOUS
100
AcDbCircle
 10
2.637240052798047
 20
0.8960498860503208
 30
0.0
 40
0.1968503937
  0
CIRCLE
  5
f675f2f1
330
1F
  8
Layer
100
AcDbEntity
  6
CONTINUOUS
100
AcDbCircle
 10
2.115143840867062
 20
1.1770018380870306
 30
0.0
 40
0.1968503937
  0
CIRCLE
  5
c9a405fc
330
1F
  8
Layer
100
AcDbEntity
  6
CONTINUOUS
100
AcDbCircle
 10
1.6516038379961953
 20
1.5466626550590203
 30
0.0
 40
0.1968503937
  0
CIRCLE
  5
2725f2ec
330
1F
  8
Layer
100
AcDbEntity
  6
CONTINUOUS
100
AcDbCircle
 10
1.2615186012797008
 20
1.9931511341508765
 30
0.0
 40
0.1968503937
  0
CIRCLE
  5
5d3ea6ae
330
1F
  8
Layer
100
AcDbEntity
  6
CONTINUOUS
100
AcDbCircle
 10
0.9574257911888497
 20
2.502116768272643
 30
0.0
 40
0.1968503937
  0
CIRCLE
  5
c73a7847
330
1F
  8
Layer
100
AcDbEntity
  6
CONTINUOUS
100
AcDbCircle
 10
0.7490992008483586
 20
3.057200983165327
 30
0.0
 40
0.1968503937
  0
CIRCLE
  5
83aaeebb
330
1F
  8
Layer
100
AcDbEntity
  6
CONTINUOUS
100
AcDbCircle
 10
0.643234618283461
 20
3.6405629154374646
 30
0.0
 40
0.1968503937
  0
CIRCLE
  5
2dc87e24
330
1F
  8
Layer
100
AcDbEntity
  6
CONTINUOUS
100
AcDbCircle
 10
0.643234618283461
 20
4.233452832594033
 30
0.0
 40
0.1968503937
  0
CIRCLE
  5
39fd4609
330
1F
  8
Layer
100
AcDbEntity
  6
CONTINUOUS
100
AcDbCircle
 10
0.749099200848359
 20
4.81681476486617
 30
0.0
 40
0.1968503937
  0
CIRCLE
  5
e66a24f3
330
1F
  8
Layer
100
AcDbEntity
  6
CONTINUOUS
100
AcDbCircle
 10
0.9574257911888502
 20
5.371898979758854
 30
0.0
 40
0.1968503937
  0
CIRCLE
  5
0d09c7a6
330
1F
  8
Layer
100
AcDbEntity
  6
CONTINUOUS
100
AcDbCircle
 10
1.2615186012797017
 20
5.88086461388062
 30
0.0
 40
0.1968503937
  0
CIRCLE
  5
0534446a
330
1F
  8
Layer
100
AcDbEntity
  6
CONTINUOUS
100
AcDbCircle
 10
1.6516038379961957
 20
6.327353092972476
 30
0.0
 40
0.1968503937
  0
CIRCLE
  5
bbd5e580
330
1F
  8
Layer
100
AcDbEntity
  6
CONTINUOUS
100
AcDbCircle
 10
2.115143840867063
 20
6.697013909944466
 30
0.0
 40
0.1968503937
  0
CIRCLE
  5
82af833f
330
1F
  8
Layer
100
AcDbEntity
  6
CONTINUOUS
100
AcDbCircle
 10
2.637240052798048
 20
6.9779658619811755
 30
0.0
 40
0.1968503937
  0
CIRCLE
  5
65f374e6
330
1F
  8
Layer
100
AcDbEntity
  6
CONTINUOUS
100
AcDbCircle
 10
3.2011118719554963
 20
7.16117892217611
 30
0.0
 40
0.1968503937
  0
CIRCLE
  5
308d4c01
330
1F
  8
Layer
100
AcDbEntity
  6
CONTINUOUS
100
AcDbCircle
 10
3.7886359941164076
 20
7.240764472026395
 30
0.0
 40
0.1968503937
  0
CIRCLE
  5
529e4583
330
1F
  8
Layer
100
AcDbEntity
  6
CONTINUOUS
100
AcDbCircle
 10
4.380928910578073
 20
7.214164566476635
 30
0.0
 40
0.1968503937
  0
CIRCLE
  5
1ef79557
330
1F
  8
Layer
100
AcDbEntity
  6
CONTINUOUS
100
AcDbCircle
 10
4.958953839665181
 20
7.082234148377673
 30
0.0
 40
0.1968503937
  0
CIRCLE
  5
42bd25ae
330
1F
  8
Layer
100
AcDbEntity
  6
CONTINUOUS
100
AcDbCircle
 10
5.504132584556373
 20
6.849213569919922
 30
0.0
 40
0.1968503937
  0
CIRCLE
  5
3cb81b27
330
1F
  8
Layer
100
AcDbEntity
  6
CONTINUOUS
100
AcDbCircle
 10
5.998942651816284
 20
6.522592304224981
 30
0.0
 40
0.1968503937
  0
CIRCLE
  5
523106c2
330
1F
  8
Layer
100
AcDbEntity
  6
CONTINUOUS
100
AcDbCircle
 10
6.4274804387521
 20
6.1128682275171595
 30
0.0
 40
0.1968503937
  0
CIRCLE
  5
dc861cfb
330
1F
  8
Layer
100
AcDbEntity
  6
CONTINUOUS
100
AcDbCircle
 10
6.775972388289636
 20
5.633210208743941
 30
0.0
 40
0.1968503937
  0
CIRCLE
  5
0c1b9256
330
1F
  8
Layer
100
AcDbEntity
  6
CONTINUOUS
100
AcDbCircle
 10
7.033217682430628
 20
5.099034851292629
 30
0.0
 40
0.1968503937
  0
CIRCLE
  5
b90e952a
330
1F
  8
Layer
100
AcDbEntity
  6
CONTINUOUS
100
AcDbCircle
 10
7.190948245759248
 20
4.527510990672656
 30
0.0
 40
0.1968503937
  0
CIRCLE
  5
6edcb3c0
330
1F
  8
Layer
100
AcDbEntity
  6
CONTINUOUS
100
AcDbCircle
 10
7.244094488188977
 20
3.937007874015748
 30
0.0
 40
0.1968503937
  0
CIRCLE
  5
4b6d5e82
330
1F
  8
Layer
100
AcDbEntity
  6
CONTINUOUS
100
AcDbCircle
 10
6.709709734363544
 20
3.3476519000441476
 30
0.0
 40
0.1968503937
  0
CIRCLE
  5
1745aa4e
330
1F
  8
Layer
100
AcDbEntity
  6
CONTINUOUS
100
AcDbCircle
 10
6.526585549223121
 20
2.7840536101788347
 30
0.0
 40
0.1968503937
  0
CIRCLE
  5
96b4695d
330
1F
  8
Layer
100
AcDbEntity
  6
CONTINUOUS
100
AcDbCircle
 10
6.230284393503789
 20
2.2708449541315736
 30
0.0
 40
0.1968503937
  0
CIRCLE
  5
f54e6352
330
1F
  8
Layer
100
AcDbEntity
  6
CONTINUOUS
100
AcDbCircle
 10
5.833756049521174
 20
1.830455612819985
 30
0.0
 40
0.1968503937
  0
CIRCLE
  5
3490bf0f
330
1F
  8
Layer
100
AcDbEntity
  6
CONTINUOUS
100
AcDbCircle
 10
5.3543307086614185
 20
1.482132713681906
 30
0.0
 40
0.1968503937
  0
CIRCLE
  5
b3d016df
330
1F
  8
Layer
100
AcDbEntity
  6
CONTINUOUS
100
AcDbCircle
 10
4.8129615588581185
 20
1.2410996388483833
 30
0.0
 40
0.1968503937
  0
CIRCLE
  5
9552820d
330
1F
  8
Layer
100
AcDbEntity
  6
CONTINUOUS
100
AcDbCircle
 10
4.233309029735082
 20
1.1178906902946584
 30
0.0
 40
0.1968503937
  0
CIRCLE
  5
4e9c8002
330
1F
  8
Layer
100
AcDbEntity
  6
CONTINUOUS
100
AcDbCircle
 10
3.640706718296416
 20
1.117890690294658
 30
0.0
 40
0.1968503937
  0
CIRCLE
  5
9cd801a2
330
1F
  8
Layer
100
AcDbEntity
  6
CONTINUOUS
100
AcDbCircle
 10
3.061054189173377
 20
1.2410996388483837
 30
0.0
 40
0.1968503937
  0
CIRCLE
  5
cd1eed02
330
1F
  8
Layer
100
AcDbEntity
  6
CONTINUOUS
100
AcDbCircle
 10
2.5196850393700796
 20
1.4821327136819056
 30
0.0
 40
0.1968503937
  0
CIRCLE
  5
98098c59
330
1F
  8
Layer
100
AcDbEntity
  6
CONTINUOUS
100
AcDbCircle
 10
2.040259698510323
 20
1.830455612819984
 30
0.0
 40
0.1968503937
  0
CIRCLE
  5
6837d6f3
330
1F
  8
Layer
100
AcDbEntity
  6
CONTINUOUS
100
AcDbCircle
 10
1.6437313545277084
 20
2.2708449541315714
 30
0.0
 40
0.1968503937
  0
CIRCLE
  5
9c6471a7
330
1F
  8
Layer
100
AcDbEntity
  6
CONTINUOUS
100
AcDbCircle
 10
1.3474301988083752
 20
2.784053610178834
 30
0.0
 40
0.1968503937
  0
CIRCLE
  5
381f76cf
330
1F
  8
Layer
100
AcDbEntity
  6
CONTINUOUS
100
AcDbCircle
 10
1.1643060136679524
 20
3.3476519000441467
 30
0.0
 40
0.1968503937
  0
CIRCLE
  5
363e8825
330
1F
  8
Layer
100
AcDbEntity
  6
CONTINUOUS
100
AcDbCircle
 10
1.1023622047244093
 20
3.9370078740157473
 30
0.0
 40
0.1968503937
  0
CIRCLE
  5
927b6956
330
1F
  8
Layer
100
AcDbEntity
  6
CONTINUOUS
100
AcDbCircle
 10
1.1643060136679524
 20
4.52636384798735
 30
0.0
 40
0.1968503937
  0
CIRCLE
  5
1e0637c0
330
1F
  8
Layer
100
AcDbEntity
  6
CONTINUOUS
100
AcDbCircle
 10
1.3474301988083752
 20
5.089962137852662
 30
0.0
 40
0.1968503937
  0
CIRCLE
  5
78c118ad
330
1F
  8
Layer
100
AcDbEntity
  6
CONTINUOUS
100
AcDbCircle
 10
1.6437313545277084
 20
5.603170793899924
 30
0.0
 40
0.1968503937
  0
CIRCLE
  5
89de7589
330
1F
  8
Layer
100
AcDbEntity
  6
CONTINUOUS
100
AcDbCircle
 10
2.040259698510323
 20
6.043560135211512
 30
0.0
 40
0.1968503937
  0
CIRCLE
  5
cd8f3170
330
1F
  8
Layer
100
AcDbEntity
  6
CONTINUOUS
100
AcDbCircle
 10
2.519685039370078
 20
6.39188303434959
 30
0.0
 40
0.1968503937
  0
CIRCLE
  5
a4529884
330
1F
  8
Layer
100
AcDbEntity
  6
CONTINUOUS
100
AcDbCircle
 10
3.061054189173377
 20
6.632916109183112
 30
0.0
 40
0.1968503937
  0
CIRCLE
  5
14078e78
330
1F
  8
Layer
100
AcDbEntity
  6
CONTINUOUS
100
AcDbCircle
 10
3.640706718296415
 20
6.756125057736838
 30
0.0
 40
0.1968503937
  0
CIRCLE
  5
ef58c112
330
1F
  8
Layer
100
AcDbEntity
  6
CONTINUOUS
100
AcDbCircle
 10
4.23330902973508
 20
6.756125057736838
 30
0.0
 40
0.1968503937
  0
CIRCLE
  5
c58d168b
330
1F
  8
Layer
100
AcDbEntity
  6
CONTINUOUS
100
AcDbCircle
 10
4.8129615588581185
 20
6.632916109183112
 30
0.0
 40
0.1968503937
  0
CIRCLE
  5
1a7ee719
330
1F
  8
Layer
100
AcDbEntity
  6
CONTINUOUS
100
AcDbCircle
 10
5.354330708661417
 20
6.39188303434959
 30
0.0
 40
0.1968503937
  0
CIRCLE
  5
1199d80f
330
1F
  8
Layer
100
AcDbEntity
  6
CONTINUOUS
100
AcDbCircle
 10
5.833756049521174
 20
6.043560135211512
 30
0.0
 40
0.1968503937
  0
CIRCLE
  5
9fd49a19
330
1F
  8
Layer
100
AcDbEntity
  6
CONTINUOUS
100
AcDbCircle
 10
6.230284393503789
 20
5.603170793899924
 30
0.0
 40
0.1968503937
  0
CIRCLE
  5
9c73e1e9
330
1F
  8
Layer
100
AcDbEntity
  6
CONTINUOUS
100
AcDbCircle
 10
6.526585549223121
 20
5.0899621378526625
 30
0.0
 40
0.1968503937
  0
CIRCLE
  5
2e16a67c
330
1F
  8
Layer
100
AcDbEntity
  6
CONTINUOUS
100
AcDbCircle
 10
6.709709734363544
 20
4.52636384798735
 30
0.0
 40
0.1968503937
  0
CIRCLE
  5
69ddb1fc
330
1F
  8
Layer
100
AcDbEntity
  6
CONTINUOUS
100
AcDbCircle
 10
6.771653543307087
 20
3.937007874015748
 30
0.0
 40
0.1968503937
  0
CIRCLE
  5
6ef02b85
330
1F
  8
Layer
100
AcDbEntity
  6
CONTINUOUS
100
AcDbCircle
 10
6.224999593217239
 20
3.3495514476420762
 30
0.0
 40
0.1968503937
  0
CIRCLE
  5
8c81c4d1
330
1F
  8
Layer
100
AcDbEntity
  6
CONTINUOUS
100
AcDbCircle
 10
6.007023653646922
 20
2.7990070690510667
 30
0.0
 40
0.1968503937
  0
CIRCLE
  5
0b9e38e6
330
1F
  8
Layer
100
AcDbEntity
  6
CONTINUOUS
100
AcDbCircle
 10
5.658981009656879
 20
2.3199674663101852
 30
0.0
 40
0.1968503937
  0
CIRCLE
  5
816cf012
330
1F
  8
Layer
100
AcDbEntity
  6
CONTINUOUS
100
AcDbCircle
 10
5.202740460580308
 20
1.942532459444059
 30
0.0
 40
0.1968503937
  0
CIRCLE
  5
f1911937
330
1F
  8
Layer
100
AcDbEntity
  6
CONTINUOUS
100
AcDbCircle
 10
4.666969278051057
 20
1.690417678042944
 30
0.0
 40
0.1968503937
  0
CIRCLE
  5
b93b5ba4
330
1F
  8
Layer
100
AcDbEntity
  6
CONTINUOUS
100
AcDbCircle
 10
4.085331935896017
 20
1.579464421035579
 30
0.0
 40
0.1968503937
  0
CIRCLE
  5
ba206ae3
330
1F
  8
Layer
100
AcDbEntity
  6
CONTINUOUS
100
AcDbCircle
 10
3.4943748474352962
 20
1.6166442896172706
 30
0.0
 40
0.1968503937
  0
CIRCLE
  5
74d40fe3
330
1F
  8
Layer
100
AcDbEntity
  6
CONTINUOUS
100
AcDbCircle
 10
2.9312300199250263
 20
1.7996211359070395
 30
0.0
 40
0.1968503937
  0
CIRCLE
  5
71ae4e32
330
1F
  8
Layer
100
AcDbEntity
  6
CONTINUOUS
100
AcDbCircle
 10
2.4312819139794737
 20
2.1168978517107337
 30
0.0
 40
0.1968503937
  0
CIRCLE
  5
d738c287
330
1F
  8
Layer
100
AcDbEntity
  6
CONTINUOUS
100
AcDbCircle
 10
2.0259441077757154
 20
2.5485387741122674
 30
0.0
 40
0.1968503937
  0
CIRCLE
  5
93dba58a
330
1F
  8
Layer
100
AcDbEntity
  6
CONTINUOUS
100
AcDbCircle
 10
1.7406854664057057
 20
3.0674223164928858
 30
0.0
 40
0.1968503937
  0
CIRCLE
  5
6c928b1e
330
1F
  8
Layer
100
AcDbEntity
  6
CONTINUOUS
100
AcDbCircle
 10
1.5934298394146191
 20
3.6409451175646357
 30
0.0
 40
0.1968503937
  0
CIRCLE
  5
dc032fd8
330
1F
  8
Layer
100
AcDbEntity
  6
CONTINUOUS
100
AcDbCircle
 10
1.5934298394146191
 20
4.233070630466861
 30
0.0
 40
0.1968503937
  0
CIRCLE
  5
fe98908e
330
1F
  8
Layer
100
AcDbEntity
  6
CONTINUOUS
100
AcDbCircle
 10
1.7406854664057052
 20
4.806593431538609
 30
0.0
 40
0.1968503937
  0
CIRCLE
  5
3a59e635
330
1F
  8
Layer
100
AcDbEntity
  6
CONTINUOUS
100
AcDbCircle
 10
2.0259441077757145
 20
5.325476973919228
 30
0.0
 40
0.1968503937
  0
CIRCLE
  5
ffa26d07
330
1F
  8
Layer
100
AcDbEntity
  6
CONTINUOUS
100
AcDbCircle
 10
2.431281913979473
 20
5.7571178963207625
 30
0.0
 40
0.1968503937
  0
CIRCLE
  5
c1aef68f
330
1F
  8
Layer
100
AcDbEntity
  6
CONTINUOUS
100
AcDbCircle
 10
2.9312300199250254
 20
6.074394612124456
 30
0.0
 40
0.1968503937
  0
CIRCLE
  5
8999609d
330
1F
  8
Layer
100
AcDbEntity
  6
CONTINUOUS
100
AcDbCircle
 10
3.494374847435296
 20
6.257371458414225
 30
0.0
 40
0.1968503937
  0
CIRCLE
  5
c5040f6a
330
1F
  8
Layer
100
AcDbEntity
  6
CONTINUOUS
100
AcDbCircle
 10
4.085331935896016
 20
6.294551326995917
 30
0.0
 40
0.1968503937
  0
CIRCLE
  5
158dd8f2
330
1F
  8
Layer
100
AcDbEntity
  6
CONTINUOUS
100
AcDbCircle
 10
4.666969278051058
 20
6.183598069988552
 30
0.0
 40
0.1968503937
  0
CIRCLE
  5
0ad835fe
330
1F
  8
Layer
100
AcDbEntity
  6
CONTINUOUS
100
AcDbCircle
 10
5.202740460580307
 20
5.931483288587438
 30
0.0
 40
0.1968503937
  0
CIRCLE
  5
db1f0e7b
330
1F
  8
Layer
100
AcDbEntity
  6
CONTINUOUS
100
AcDbCircle
 10
5.658981009656879
 20
5.554048281721313
 30
0.0
 40
0.1968503937
  0
CIRCLE
  5
5bc12947
330
1F
  8
Layer
100
AcDbEntity
  6
CONTINUOUS
100
AcDbCircle
 10
6.007023653646922
 20
5.07500867898043
 30
0.0
 40
0.1968503937
  0
CIRCLE
  5
786ce60b
330
1F
  8
Layer
100
AcDbEntity
  6
CONTINUOUS
100
AcDbCircle
 10
6.224999593217239
 20
4.524464300389421
 30
0.0
 40
0.1968503937
  0
CIRCLE
  5
0667e314
330
1F
  8
Layer
100
AcDbEntity
  6
CONTINUOUS
100
AcDbCircle
 10
6.299212598425197
 20
3.937007874015748
 30
0.0
 40
0.1968503937
  0
CIRCLE
  5
bcc4000a
330
1F
  8
Layer
100
AcDbEntity
  6
CONTINUOUS
100
AcDbCircle
 10
5.734280030793991
 20
3.3530387507875004
 30
0.0
 40
0.1968503937
  0
CIRCLE
  5
71c78311
330
1F
  8
Layer
100
AcDbEntity
  6
CONTINUOUS
100
AcDbCircle
 10
5.465858887007775
 20
2.8262325940929642
 30
0.0
 40
0.1968503937
  0
CIRCLE
  5
7ff693eb
330
1F
  8
Layer
100
AcDbEntity
  6
CONTINUOUS
100
AcDbCircle
 10
5.047783153938532
 20
2.408156861023721
 30
0.0
 40
0.1968503937
  0
CIRCLE
  5
9ca92a6f
330
1F
  8
Layer
100
AcDbEntity
  6
CONTINUOUS
100
AcDbCircle
 10
4.520976997243995
 20
2.139735717237505
 30
0.0
 40
0.1968503937
  0
CIRCLE
  5
13e9f9be
330
1F
  8
Layer
100
AcDbEntity
  6
CONTINUOUS
100
AcDbCircle
 10
3.9370078740157477
 20
2.047244094488189
 30
0.0
 40
0.1968503937
  0
CIRCLE
  5
ab9bf559
330
1F
  8
Layer
100
AcDbEntity
  6
CONTINUOUS
100
AcDbCircle
 10
3.3530387507875004
 20
2.139735717237505
 30
0.0
 40
0.1968503937
  0
CIRCLE
  5
5c6ed875
330
1F
  8
Layer
100
AcDbEntity
  6
CONTINUOUS
100
AcDbCircle
 10
2.8262325940929642
 20
2.4081568610237216
 30
0.0
 40
0.1968503937
  0
CIRCLE
  5
98f5bc44
330
1F
  8
Layer
100
AcDbEntity
  6
CONTINUOUS
100
AcDbCircle
 10
2.408156861023721
 20
2.8262325940929642
 30
0.0
 40
0.1968503937
  0
CIRCLE
  5
dad9ff5c
330
1F
  8
Layer
100
AcDbEntity
  6
CONTINUOUS
100
AcDbCircle
 10
2.139735717237505
 20
3.3530387507875012
 30
0.0
 40
0.1968503937
  0
CIRCLE
  5
c6be3b79
330
1F
  8
Layer
100
AcDbEntity
  6
CONTINUOUS
100
AcDbCircle
 10
2.047244094488189
 20
3.937007874015748
 30
0.0
 40
0.1968503937
  0
CIRCLE
  5
ec6d82b3
330
1F
  8
Layer
100
AcDbEntity
  6
CONTINUOUS
100
AcDbCircle
 10
2.139735717237505
 20
4.520976997243995
 30
0.0
 40
0.1968503937
  0
CIRCLE
  5
13cc7502
330
1F
  8
Layer
100
AcDbEntity
  6
CONTINUOUS
100
AcDbCircle
 10
2.4081568610237216
 20
5.047783153938532
 30
0.0
 40
0.1968503937
  0
CIRCLE
  5
45e19528
330
1F
  8
Layer
100
AcDbEntity
  6
CONTINUOUS
100
AcDbCircle
 10
2.8262325940929642
 20
5.465858887007775
 30
0.0
 40
0.1968503937
  0
CIRCLE
  5
80f13d4e
330
1F
  8
Layer
100
AcDbEntity
  6
CONTINUOUS
100
AcDbCircle
 10
3.3530387507875012
 20
5.734280030793991
 30
0.0
 40
0.1968503937
  0
CIRCLE
  5
64ab6993
330
1F
  8
Layer
100
AcDbEntity
  6
CONTINUOUS
100
AcDbCircle
 10
3.937007874015748
 20
5.826771653543307
 30
0.0
 40
0.1968503937
  0
CIRCLE
  5
67c0f9c5
330
1F
  8
Layer
100
AcDbEntity
  6
CONTINUOUS
100
AcDbCircle
 10
4.520976997243995
 20
5.734280030793991
 30
0.0
 40
0.1968503937
  0
CIRCLE
  5
bcf16566
330
1F
  8
Layer
100
AcDbEntity
  6
CONTINUOUS
100
AcDbCircle
 10
5.047783153938532
 20
5.465858887007775
 30
0.0
 40
0.1968503937
  0
CIRCLE
  5
e988f4f1
330
1F
  8
Layer
100
AcDbEntity
  6
CONTINUOUS
100
AcDbCircle
 10
5.465858887007775
 20
5.047783153938532
 30
0.0
 40
0.1968503937
  0
CIRCLE
  5
7b206cf3
330
1F
  8
Layer
100
AcDbEntity
  6
CONTINUOUS
100
AcDbCircle
 10
5.734280030793991
 20
4.520976997243995
 30
0.0
 40
0.1968503937
  0
CIRCLE
  5
b0fcb62b
330
1F
  8
Layer
100
AcDbEntity
  6
CONTINUOUS
100
AcDbCircle
 10
5.826771653543307
 20
3.937007874015748
 30
0.0
 40
0.1968503937
  0
CIRCLE
  5
d5423fbe
330
1F
  8
Layer
100
AcDbEntity
  6
CONTINUOUS
100
AcDbCircle
 10
5.231796711619435
 20
3.360530742097291
 30
0.0
 40
0.1968503937
  0
CIRCLE
  5
64602540
330
1F
  8
Layer
100
AcDbEntity
  6
CONTINUOUS
100
AcDbCircle
 10
4.885381961768461
 20
2.883731743417867
 30
0.0
 40
0.1968503937
  0
CIRCLE
  5
70a3e0f7
330
1F
  8
Layer
100
AcDbEntity
  6
CONTINUOUS
100
AcDbCircle
 10
4.374984716436933
 20
2.5890537564320657
 30
0.0
 40
0.1968503937
  0
CIRCLE
  5
478f8f27
330
1F
  8
Layer
100
AcDbEntity
  6
CONTINUOUS
100
AcDbCircle
 10
3.788857296156082
 20
2.527449282155203
 30
0.0
 40
0.1968503937
  0
CIRCLE
  5
b284d56a
330
1F
  8
Layer
100
AcDbEntity
  6
CONTINUOUS
100
AcDbCircle
 10
3.228346456692914
 20
2.709570293848827
 30
0.0
 40
0.1968503937
  0
CIRCLE
  5
df2f6114
330
1F
  8
Layer
100
AcDbEntity
  6
CONTINUOUS
100
AcDbCircle
 10
2.7903696142717287
 20
3.10392641407366
 30
0.0
 40
0.1968503937
  0
CIRCLE
  5
574ff235
330
1F
  8
Layer
100
AcDbEntity
  6
CONTINUOUS
100
AcDbCircle
 10
2.55065694384185
 20
3.6423298870299474
 30
0.0
 40
0.1968503937
  0
CIRCLE
  5
c2a6c0b2
330
1F
  8
Layer
100
AcDbEntity
  6
CONTINUOUS
100
AcDbCircle
 10
2.55065694384185
 20
4.231685861001549
 30
0.0
 40
0.1968503937
  0
CIRCLE
  5
6a467ae6
330
1F
  8
Layer
100
AcDbEntity
  6
CONTINUOUS
100
AcDbCircle
 10
2.7903696142717287
 20
4.770089333957836
 30
0.0
 40
0.1968503937
  0
CIRCLE
  5
e9f7e34a
330
1F
  8
Layer
100
AcDbEntity
  6
CONTINUOUS
100
AcDbCircle
 10
3.228346456692913
 20
5.164445454182669
 30
0.0
 40
0.1968503937
  0
CIRCLE
  5
34c8125c
330
1F
  8
Layer
100
AcDbEntity
  6
CONTINUOUS
100
AcDbCircle
 10
3.788857296156082
 20
5.346566465876293
 30
0.0
 40
0.1968503937
  0
CIRCLE
  5
4eb0da76
330
1F
  8
Layer
100
AcDbEntity
  6
CONTINUOUS
100
AcDbCircle
 10
4.374984716436933
 20
5.284961991599431
 30
0.0
 40
0.1968503937
  0
CIRCLE
  5
c2edcc3e
330
1F
  8
Layer
100
AcDbEntity
  6
CONTINUOUS
100
AcDbCircle
 10
4.885381961768461
 20
4.990284004613629
 30
0.0
 40
0.1968503937
  0
CIRCLE
  5
78d1e38d
330
1F
  8
Layer
100
AcDbEntity
  6
CONTINUOUS
100
AcDbCircle
 10
5.231796711619435
 20
4.513485005934205
 30
0.0
 40
0.1968503937
  0
CIRCLE
  5
74007b7d
330
1F
  8
Layer
100
AcDbEntity
  6
CONTINUOUS
100
AcDbCircle
 10
5.354330708661418
 20
3.937007874015748
 30
0.0
 40
0.1968503937
  0
CIRCLE
  5
2493ff38
330
1F
  8
Layer
100
AcDbEntity
  6
CONTINUOUS
100
AcDbCircle
 10
4.701433380511761
 20
3.381620234054356
 30
0.0
 40
0.1968503937
  0
CIRCLE
  5
69d610d8
330
1F
  8
Layer
100
AcDbEntity
  6
CONTINUOUS
100
AcDbCircle
 10
4.228992435629872
 20
3.0383717956266265
 30
0.0
 40
0.1968503937
  0
CIRCLE
  5
e4b744f8
330
1F
  8
Layer
100
AcDbEntity
  6
CONTINUOUS
100
AcDbCircle
 10
3.6450233124016247
 20
3.0383717956266265
 30
0.0
 40
0.1968503937
  0
CIRCLE
  5
393f163b
330
1F
  8
Layer
100
AcDbEntity
  6
CONTINUOUS
100
AcDbCircle
 10
3.172582367519735
 20
3.381620234054356
 30
0.0
 40
0.1968503937
  0
CIRCLE
  5
445a4f6e
330
1F
  8
Layer
100
AcDbEntity
  6
CONTINUOUS
100
AcDbCircle
 10
2.9921259842519685
 20
3.937007874015748
 30
0.0
 40
0.1968503937
  0
CIRCLE
  5
b96d43b9
330
1F
  8
Layer
100
AcDbEntity
  6
CONTINUOUS
100
AcDbCircle
 10
3.172582367519735
 20
4.49239551397714
 30
0.0
 40
0.1968503937
  0
CIRCLE
  5
3a7a16a0
330
1F
  8
Layer
100
AcDbEntity
  6
CONTINUOUS
100
AcDbCircle
 10
3.6450233124016247
 20
4.83564395240487
 30
0.0
 40
0.1968503937
  0
CIRCLE
  5
da0178d3
330
1F
  8
Layer
100
AcDbEntity
  6
CONTINUOUS
100
AcDbCircle
 10
4.228992435629872
 20
4.83564395240487
 30
0.0
 40
0.1968503937
  0
CIRCLE
  5
50c50e05
330
1F
  8
Layer
100
AcDbEntity
  6
CONTINUOUS
100
AcDbCircle
 10
4.701433380511761
 20
4.49239551397714
 30
0.0
 40
0.1968503937
  0
CIRCLE
  5
e4b4e89b
330
1F
  8
Layer
100
AcDbEntity
  6
CONTINUOUS
100
AcDbCircle
 10
4.881889763779528
 20
3.937007874015748
 30
0.0
 40
0.1968503937
  0
CIRCLE
  5
7a799e3f
330
1F
  8
Layer
100
AcDbEntity
  6
CONTINUOUS
100
AcDbCircle
 10
4.08300015482281
 20
3.4876898348211873
 30
0.0
 40
0.1968503937
  0
CIRCLE
  5
6258091b
330
1F
  8
Layer
100
AcDbEntity
  6
CONTINUOUS
100
AcDbCircle
 10
3.554795120767741
 20
3.659314054035052
 30
0.0
 40
0.1968503937
  0
CIRCLE
  5
6e6e0a55
330
1F
  8
Layer
100
AcDbEntity
  6
CONTINUOUS
100
AcDbCircle
 10
3.5547951207677415
 20
4.214701693996444
 30
0.0
 40
0.1968503937
  0
CIRCLE
  5
abeacb9b
330
1F
  8
Layer
100
AcDbEntity
  6
CONTINUOUS
100
AcDbCircle
 10
4.08300015482281
 20
4.3863259132103085
 30
0.0
 40
0.1968503937
  0
CIRCLE
  5
da854003
330
1F
  8
Layer
100
AcDbEntity
  6
CONTINUOUS
100
AcDbCircle
 10
4.409448818897638
 20
3.937007874015748
 30
0.0
 40
0.1968503937
  0
CIRCLE
  5
360a3e9e
330
1F
  8
Layer
100
AcDbEntity
  6
CONTINUOUS
100
AcDbCircle
 10
3.937007874015748
 20
3.937007874015748
 30
0.0
 40
0.1968503937
  0
CIRCLE
  5
5065a7d7
330
1F
  8
Layer
100
AcDbEntity
  6
CONTINUOUS
100
AcDbCircle
 10
3.937007874015748
 20
3.937007874015748
 30
0.0
 40
0.1968503937
  0
CIRCLE
  5
da2e940a
330
1F
  8
Layer
100
AcDbEntity
  6
CONTINUOUS
100
AcDbCircle
 10
4.409448818897638
 20
3.937007874015748
 30
0.0
 40
0.1968503937
  0
CIRCLE
  5
34c31b01
330
1F
  8
Layer
100
AcDbEntity
  6
CONTINUOUS
100
AcDbCircle
 10
4.08300015482281
 20
4.3863259132103085
 30
0.0
 40
0.1968503937
  0
CIRCLE
  5
1d9b057c
330
1F
  8
Layer
100
AcDbEntity
  6
CONTINUOUS
100
AcDbCircle
 10
3.5547951207677415
 20
4.214701693996444
 30
0.0
 40
0.1968503937
  0
CIRCLE
  5
31f593bf
330
1F
  8
Layer
100
AcDbEntity
  6
CONTINUOUS
100
AcDbCircle
 10
3.554795120767741
 20
3.659314054035052
 30
0.0
 40
0.1968503937
  0
CIRCLE
  5
32104f0b
330
1F
  8
Layer
100
AcDbEntity
  6
CONTINUOUS
100
AcDbCircle
 10
4.08300015482281
 20
3.4876898348211873
 30
0.0
 40
0.1968503937
  0
CIRCLE
  5
977218b2
330
1F
  8
Layer
100
AcDbEntity
  6
CONTINUOUS
100
AcDbCircle
 10
4.881889763779528
 20
3.937007874015748
 30
0.0
 40
0.1968503937
  0
CIRCLE
  5
712d9427
330
1F
  8
Layer
100
AcDbEntity
  6
CONTINUOUS
100
AcDbCircle
 10
4.701433380511761
 20
4.49239551397714
 30
0.0
 40
0.1968503937
  0
CIRCLE
  5
63612e7c
330
1F
  8
Layer
100
AcDbEntity
  6
CONTINUOUS
100
AcDbCircle
 10
4.228992435629872
 20
4.83564395240487
 30
0.0
 40
0.1968503937
  0
CIRCLE
  5
dae5284e
330
1F
  8
Layer
100
AcDbEntity
  6
CONTINUOUS
100
AcDbCircle
 10
3.6450233124016247
 20
4.83564395240487
 30
0.0
 40
0.1968503937
  0
CIRCLE
  5
084d0c5f
330
1F
  8
Layer
100
AcDbEntity
  6
CONTINUOUS
100
AcDbCircle
 10
3.172582367519735
 20
4.49239551397714
 30
0.0
 40
0.1968503937
  0
CIRCLE
  5
66bf5ea3
330
1F
  8
Layer
100
AcDbEntity
  6
CONTINUOUS
100
AcDbCircle
 10
2.9921259842519685
 20
3.937007874015748
 30
0.0
 40
0.1968503937
  0
CIRCLE
  5
f65e499c
330
1F
  8
Layer
100
AcDbEntity
  6
CONTINUOUS
100
AcDbCircle
 10
3.172582367519735
 20
3.381620234054356
 30
0.0
 40
0.1968503937
  0
CIRCLE
  5
d173e2dc
330
1F
  8
Layer
100
AcDbEntity
  6
CONTINUOUS
100
AcDbCircle
 10
3.6450233124016247
 20
3.0383717956266265
 30
0.0
 40
0.1968503937
  0
CIRCLE
  5
856fcf2f
330
1F
  8
Layer
100
AcDbEntity
  6
CONTINUOUS
100
AcDbCircle
 10
4.228992435629872
 20
3.0383717956266265
 30
0.0
 40
0.1968503937
  0
CIRCLE
  5
946c34f8
330
1F
  8
Layer
100
AcDbEntity
  6
CONTINUOUS
100
AcDbCircle
 10
4.701433380511761
 20
3.381620234054356
 30
0.0
 40
0.1968503937
  0
CIRCLE
  5
b087484c
330
1F
  8
Layer
100
AcDbEntity
  6
CONTINUOUS
100
AcDbCircle
 10
5.354330708661418
 20
3.937007874015748
 30
0.0
 40
0.1968503937
  0
CIRCLE
  5
bcea364d
330
1F
  8
Layer
100
AcDbEntity
  6
CONTINUOUS
100
AcDbCircle
 10
5.231796711619435
 20
4.513485005934205
 30
0.0
 40
0.1968503937
  0
CIRCLE
  5
ef72fa40
330
1F
  8
Layer
100
AcDbEntity
  6
CONTINUOUS
100
AcDbCircle
 10
4.885381961768461
 20
4.990284004613629
 30
0.0
 40
0.1968503937
  0
CIRCLE
  5
7038e4d0
330
1F
  8
Layer
100
AcDbEntity
  6
CONTINUOUS
100
AcDbCircle
 10
4.374984716436933
 20
5.284961991599431
 30
0.0
 40
0.1968503937
  0
CIRCLE
  5
d56e7207
330
1F
  8
Layer
100
AcDbEntity
  6
CONTINUOUS
100
AcDbCircle
 10
3.788857296156082
 20
5.346566465876293
 30
0.0
 40
0.1968503937
  0
CIRCLE
  5
5b8f10d2
330
1F
  8
Layer
100
AcDbEntity
  6
CONTINUOUS
100
AcDbCircle
 10
3.228346456692913
 20
5.164445454182669
 30
0.0
 40
0.1968503937
  0
CIRCLE
  5
6fba9cbc
330
1F
  8
Layer
100
AcDbEntity
  6
CONTINUOUS
100
AcDbCircle
 10
2.7903696142717287
 20
4.770089333957836
 30
0.0
 40
0.1968503937
  0
CIRCLE
  5
75c597cf
330
1F
  8
Layer
100
AcDbEntity
  6
CONTINUOUS
100
AcDbCircle
 10
2.55065694384185
 20
4.231685861001549
 30
0.0
 40
0.1968503937
  0
CIRCLE
  5
45c18a19
330
1F
  8
Layer
100
AcDbEntity
  6
CONTINUOUS
100
AcDbCircle
 10
2.55065694384185
 20
3.6423298870299474
 30
0.0
 40
0.1968503937
  0
CIRCLE
  5
7b8f90e5
330
1F
  8
Layer
100
AcDbEntity
  6
CONTINUOUS
100
AcDbCircle
 10
2.7903696142717287
 20
3.10392641407366
 30
0.0
 40
0.1968503937
  0
CIRCLE
  5
aed4ff24
330
1F
  8
Layer
100
AcDbEntity
  6
CONTINUOUS
100
AcDbCircle
 10
3.228346456692914
 20
2.709570293848827
 30
0.0
 40
0.1968503937
  0
CIRCLE
  5
867c4979
330
1F
  8
Layer
100
AcDbEntity
  6
CONTINUOUS
100
AcDbCircle
 10
3.788857296156082
 20
2.527449282155203
 30
0.0
 40
0.1968503937
  0
CIRCLE
  5
ce34940f
330
1F
  8
Layer
100
AcDbEntity
  6
CONTINUOUS
100
AcDbCircle
 10
4.374984716436933
 20
2.5890537564320657
 30
0.0
 40
0.1968503937
  0
CIRCLE
  5
8c9a0824
330
1F
  8
Layer
100
AcDbEntity
  6
CONTINUOUS
100
AcDbCircle
 10
4.885381961768461
 20
2.883731743417867
 30
0.0
 40
0.1968503937
  0
CIRCLE
  5
fc831464
330
1F
  8
Layer
100
AcDbEntity
  6
CONTINUOUS
100
AcDbCircle
 10
5.231796711619435
 20
3.360530742097291
 30
0.0
 40
0.1968503937
  0
CIRCLE
  5
246d071e
330
1F
  8
Layer
100
AcDbEntity
  6
CONTINUOUS
100
AcDbCircle
 10
5.826771653543307
 20
3.937007874015748
 30
0.0
 40
0.1968503937
  0
CIRCLE
  5
e4a22b30
330
1F
  8
Layer
100
AcDbEntity
  6
CONTINUOUS
100
AcDbCircle
 10
5.734280030793991
 20
4.520976997243995
 30
0.0
 40
0.1968503937
  0
CIRCLE
  5
473e6f72
330
1F
  8
Layer
100
AcDbEntity
  6
CONTINUOUS
100
AcDbCircle
 10
5.465858887007775
 20
5.047783153938532
 30
0.0
 40
0.1968503937
  0
CIRCLE
  5
bc0f17e5
330
1F
  8
Layer
100
AcDbEntity
  6
CONTINUOUS
100
AcDbCircle
 10
5.047783153938532
 20
5.465858887007775
 30
0.0
 40
0.1968503937
  0
CIRCLE
  5
2c766e6c
330
1F
  8
Layer
100
AcDbEntity
  6
CONTINUOUS
100
AcDbCircle
 10
4.520976997243995
 20
5.734280030793991
 30
0.0
 40
0.1968503937
  0
CIRCLE
  5
9bee0adb
330
1F
  8
Layer
100
AcDbEntity
  6
CONTINUOUS
100
AcDbCircle
 10
3.937007874015748
 20
5.826771653543307
 30
0.0
 40
0.1968503937
  0
CIRCLE
  5
46c57e76
330
1F
  8
Layer
100
AcDbEntity
  6
CONTINUOUS
100
AcDbCircle
 10
3.3530387507875012
 20
5.734280030793991
 30
0.0
 40
0.1968503937
  0
CIRCLE
  5
f3f01123
330
1F
  8
Layer
100
AcDbEntity
  6
CONTINUOUS
100
AcDbCircle
 10
2.8262325940929642
 20
5.465858887007775
 30
0.0
 40
0.1968503937
  0
CIRCLE
  5
830f5f22
330
1F
  8
Layer
100
AcDbEntity
  6
CONTINUOUS
100
AcDbCircle
 10
2.4081568610237216
 20
5.047783153938532
 30
0.0
 40
0.1968503937
  0
CIRCLE
  5
cb8a6b2b
330
1F
  8
Layer
100
AcDbEntity
  6
CONTINUOUS
100
AcDbCircle
 10
2.139735717237505
 20
4.520976997243995
 30
0.0
 40
0.1968503937
  0
CIRCLE
  5
c06ee41b
330
1F
  8
Layer
100
AcDbEntity
  6
CONTINUOUS
100
AcDbCircle
 10
2.047244094488189
 20
3.937007874015748
 30
0.0
 40
0.1968503937
  0
CIRCLE
  5
8ad3d9be
330
1F
  8
Layer
100
AcDbEntity
  6
CONTINUOUS
100
AcDbCircle
 10
2.139735717237505
 20
3.3530387507875012
 30
0.0
 40
0.1968503937
  0
CIRCLE
  5
bec5a81f
330
1F
  8
Layer
100
AcDbEntity
  6
CONTINUOUS
100
AcDbCircle
 10
2.408156861023721
 20
2.8262325940929642
 30
0.0
 40
0.1968503937
  0
CIRCLE
  5
0deeaddd
330
1F
  8
Layer
100
AcDbEntity
  6
CONTINUOUS
100
AcDbCircle
 10
2.8262325940929642
 20
2.4081568610237216
 30
0.0
 40
0.1968503937
  0
CIRCLE
  5
98dda3d2
330
1F
  8
Layer
100
AcDbEntity
  6
CONTINUOUS
100
AcDbCircle
 10
3.3530387507875004
 20
2.139735717237505
 30
0.0
 40
0.1968503937
  0
CIRCLE
  5
126f8d89
330
1F
  8
Layer
100
AcDbEntity
  6
CONTINUOUS
100
AcDbCircle
 10
3.9370078740157477
 20
2.047244094488189
 30
0.0
 40
0.1968503937
  0
CIRCLE
  5
5a49061a
330
1F
  8
Layer
100
AcDbEntity
  6
CONTINUOUS
100
AcDbCircle
 10
4.520976997243995
 20
2.139735717237505
 30
0.0
 40
0.1968503937
  0
CIRCLE
  5
fd5ad945
330
1F
  8
Layer
100
AcDbEntity
  6
CONTINUOUS
100
AcDbCircle
 10
5.047783153938532
 20
2.408156861023721
 30
0.0
 40
0.1968503937
  0
CIRCLE
  5
33b7563f
330
1F
  8
Layer
100
AcDbEntity
  6
CONTINUOUS
100
AcDbCircle
 10
5.465858887007775
 20
2.8262325940929642
 30
0.0
 40
0.1968503937
  0
CIRCLE
  5
4d1b19ac
330
1F
  8
Layer
100
AcDbEntity
  6
CONTINUOUS
100
AcDbCircle
 10
5.734280030793991
 20
3.3530387507875004
 30
0.0
 40
0.1968503937
  0
CIRCLE
  5
36a308e4
330
1F
  8
Layer
100
AcDbEntity
  6
CONTINUOUS
100
AcDbCircle
 10
6.299212598425197
 20
3.937007874015748
 30
0.0
 40
0.1968503937
  0
CIRCLE
  5
72636829
330
1F
  8
Layer
100
AcDbEntity
  6
CONTINUOUS
100
AcDbCircle
 10
6.224999593217239
 20
4.524464300389421
 30
0.0
 40
0.1968503937
  0
CIRCLE
  5
aab94fcc
330
1F
  8
Layer
100
AcDbEntity
  6
CONTINUOUS
100
AcDbCircle
 10
6.007023653646922
 20
5.07500867898043
 30
0.0
 40
0.1968503937
  0
CIRCLE
  5
c82299cb
330
1F
  8
Layer
100
AcDbEntity
  6
CONTINUOUS
100
AcDbCircle
 10
5.658981009656879
 20
5.554048281721313
 30
0.0
 40
0.1968503937
  0
CIRCLE
  5
808815fb
330
1F
  8
Layer
100
AcDbEntity
  6
CONTINUOUS
100
AcDbCircle
 10
5.202740460580307
 20
5.931483288587438
 30
0.0
 40
0.1968503937
  0
CIRCLE
  5
dabe7097
330
1F
  8
Layer
100
AcDbEntity
  6
CONTINUOUS
100
AcDbCircle
 10
4.666969278051058
 20
6.183598069988552
 30
0.0
 40
0.1968503937
  0
CIRCLE
  5
71b78dc8
330
1F
  8
Layer
100
AcDbEntity
  6
CONTINUOUS
100
AcDbCircle
 10
4.085331935896016
 20
6.294551326995917
 30
0.0
 40
0.1968503937
  0
CIRCLE
  5
d84e73fe
330
1F
  8
Layer
100
AcDbEntity
  6
CONTINUOUS
100
AcDbCircle
 10
3.494374847435296
 20
6.257371458414225
 30
0.0
 40
0.1968503937
  0
CIRCLE
  5
0dae516c
330
1F
  8
Layer
100
AcDbEntity
  6
CONTINUOUS
100
AcDbCircle
 10
2.9312300199250254
 20
6.074394612124456
 30
0.0
 40
0.1968503937
  0
CIRCLE
  5
63370010
330
1F
  8
Layer
100
AcDbEntity
  6
CONTINUOUS
100
AcDbCircle
 10
2.431281913979473
 20
5.7571178963207625
 30
0.0
 40
0.1968503937
  0
CIRCLE
  5
e76937b0
330
1F
  8
Layer
100
AcDbEntity
  6
CONTINUOUS
100
AcDbCircle
 10
2.0259441077757145
 20
5.325476973919228
 30
0.0
 40
0.1968503937
  0
CIRCLE
  5
701f1322
330
1F
  8
Layer
100
AcDbEntity
  6
CONTINUOUS
100
AcDbCircle
 10
1.7406854664057052
 20
4.806593431538609
 30
0.0
 40
0.1968503937
  0
CIRCLE
  5
5ae565f6
330
1F
  8
Layer
100
AcDbEntity
  6
CONTINUOUS
100
AcDbCircle
 10
1.5934298394146191
 20
4.233070630466861
 30
0.0
 40
0.1968503937
  0
CIRCLE
  5
9252992b
330
1F
  8
Layer
100
AcDbEntity
  6
CONTINUOUS
100
AcDbCircle
 10
1.5934298394146191
 20
3.6409451175646357
 30
0.0
 40
0.1968503937
  0
CIRCLE
  5
b13d0499
330
1F
  8
Layer
100
AcDbEntity
  6
CONTINUOUS
100
AcDbCircle
 10
1.7406854664057057
 20
3.0674223164928858
 30
0.0
 40
0.1968503937
  0
CIRCLE
  5
6b66fc74
330
1F
  8
Layer
100
AcDbEntity
  6
CONTINUOUS
100
AcDbCircle
 10
2.0259441077757154
 20
2.5485387741122674
 30
0.0
 40
0.1968503937
  0
CIRCLE
  5
84a409d3
330
1F
  8
Layer
100
AcDbEntity
  6
CONTINUOUS
100
AcDbCircle
 10
2.4312819139794737
 20
2.1168978517107337
 30
0.0
 40
0.1968503937
  0
CIRCLE
  5
ac4537e1
330
1F
  8
Layer
100
AcDbEntity
  6
CONTINUOUS
100
AcDbCircle
 10
2.9312300199250263
 20
1.7996211359070395
 30
0.0
 40
0.1968503937
  0
CIRCLE
  5
1bdfe9e5
330
1F
  8
Layer
100
AcDbEntity
  6
CONTINUOUS
100
AcDbCircle
 10
3.4943748474352962
 20
1.6166442896172706
 30
0.0
 40
0.1968503937
  0
CIRCLE
  5
4c833ba4
330
1F
  8
Layer
100
AcDbEntity
  6
CONTINUOUS
100
AcDbCircle
 10
4.085331935896017
 20
1.579464421035579
 30
0.0
 40
0.1968503937
  0
CIRCLE
  5
ea530bf7
330
1F
  8
Layer
100
AcDbEntity
  6
CONTINUOUS
100
AcDbCircle
 10
4.666969278051057
 20
1.690417678042944
 30
0.0
 40
0.1968503937
  0
CIRCLE
  5
4a49f42e
330
1F
  8
Layer
100
AcDbEntity
  6
CONTINUOUS
100
AcDbCircle
 10
5.202740460580308
 20
1.942532459444059
 30
0.0
 40
0.1968503937
  0
CIRCLE
  5
053e6d2d
330
1F
  8
Layer
100
AcDbEntity
  6
CONTINUOUS
100
AcDbCircle
 10
5.658981009656879
 20
2.3199674663101852
 30
0.0
 40
0.1968503937
  0
CIRCLE
  5
fb3c0d75
330
1F
  8
Layer
100
AcDbEntity
  6
CONTINUOUS
100
AcDbCircle
 10
6.007023653646922
 20
2.7990070690510667
 30
0.0
 40
0.1968503937
  0
CIRCLE
  5
4532950f
330
1F
  8
Layer
100
AcDbEntity
  6
CONTINUOUS
100
AcDbCircle
 10
6.224999593217239
 20
3.3495514476420762
 30
0.0
 40
0.1968503937
  0
CIRCLE
  5
c5a693ff
330
1F
  8
Layer
100
AcDbEntity
  6
CONTINUOUS
100
AcDbCircle
 10
6.771653543307087
 20
3.937007874015748
 30
0.0
 40
0.1968503937
  0
CIRCLE
  5
d20fdc8d
330
1F
  8
Layer
100
AcDbEntity
  6
CONTINUOUS
100
AcDbCircle
 10
6.709709734363544
 20
4.52636384798735
 30
0.0
 40
0.1968503937
  0
CIRCLE
  5
b9ee0325
330
1F
  8
Layer
100
AcDbEntity
  6
CONTINUOUS
100
AcDbCircle
 10
6.526585549223121
 20
5.0899621378526625
 30
0.0
 40
0.1968503937
  0
CIRCLE
  5
fe3d973d
330
1F
  8
Layer
100
AcDbEntity
  6
CONTINUOUS
100
AcDbCircle
 10
6.230284393503789
 20
5.603170793899924
 30
0.0
 40
0.1968503937
  0
CIRCLE
  5
d6b56579
330
1F
  8
Layer
100
AcDbEntity
  6
CONTINUOUS
100
AcDbCircle
 10
5.833756049521174
 20
6.043560135211512
 30
0.0
 40
0.1968503937
  0
CIRCLE
  5
18381e67
330
1F
  8
Layer
100
AcDbEntity
  6
CONTINUOUS
100
AcDbCircle
 10
5.354330708661417
 20
6.39188303434959
 30
0.0
 40
0.1968503937
  0
CIRCLE
  5
9628998d
330
1F
  8
Layer
100
AcDbEntity
  6
CONTINUOUS
100
AcDbCircle
 10
4.8129615588581185
 20
6.632916109183112
 30
0.0
 40
0.1968503937
  0
CIRCLE
  5
1b671240
330
1F
  8
Layer
100
AcDbEntity
  6
CONTINUOUS
100
AcDbCircle
 10
4.23330902973508
 20
6.756125057736838
 30
0.0
 40
0.1968503937
  0
CIRCLE
  5
1e84d404
330
1F
  8
Layer
100
AcDbEntity
  6
CONTINUOUS
100
AcDbCircle
 10
3.640706718296415
 20
6.756125057736838
 30
0.0
 40
0.1968503937
  0
CIRCLE
  5
982a5a70
330
1F
  8
Layer
100
AcDbEntity
  6
CONTINUOUS
100
AcDbCircle
 10
3.061054189173377
 20
6.632916109183112
 30
0.0
 40
0.1968503937
  0
CIRCLE
  5
6c6328c8
330
1F
  8
Layer
100
AcDbEntity
  6
CONTINUOUS
100
AcDbCircle
 10
2.519685039370078
 20
6.39188303434959
 30
0.0
 40
0.1968503937
  0
CIRCLE
  5
647f6274
330
1F
  8
Layer
100
AcDbEntity
  6
CONTINUOUS
100
AcDbCircle
 10
2.040259698510323
 20
6.043560135211512
 30
0.0
 40
0.1968503937
  0
CIRCLE
  5
50ce0cfa
330
1F
  8
Layer
100
AcDbEntity
  6
CONTINUOUS
100
AcDbCircle
 10
1.6437313545277084
 20
5.603170793899924
 30
0.0
 40
0.1968503937
  0
CIRCLE
  5
7569bad5
330
1F
  8
Layer
100
AcDbEntity
  6
CONTINUOUS
100
AcDbCircle
 10
1.3474301988083752
 20
5.089962137852662
 30
0.0
 40
0.1968503937
  0
CIRCLE
  5
8524b9cd
330
1F
  8
Layer
100
AcDbEntity
  6
CONTINUOUS
100
AcDbCircle
 10
1.1643060136679524
 20
4.52636384798735
 30
0.0
 40
0.1968503937
  0
CIRCLE
  5
817e2e80
330
1F
  8
Layer
100
AcDbEntity
  6
CONTINUOUS
100
AcDbCircle
 10
1.1023622047244093
 20
3.9370078740157473
 30
0.0
 40
0.1968503937
  0
CIRCLE
  5
295823f4
330
1F
  8
Layer
100
AcDbEntity
  6
CONTINUOUS
100
AcDbCircle
 10
1.1643060136679524
 20
3.3476519000441467
 30
0.0
 40
0.1968503937
  0
CIRCLE
  5
87e0c41d
330
1F
  8
Layer
100
AcDbEntity
  6
CONTINUOUS
100
AcDbCircle
 10
1.3474301988083752
 20
2.784053610178834
 30
0.0
 40
0.1968503937
  0
CIRCLE
  5
6625202b
330
1F
  8
Layer
100
AcDbEntity
  6
CONTINUOUS
100
AcDbCircle
 10
1.6437313545277084
 20
2.2708449541315714
 30
0.0
 40
0.1968503937
  0
CIRCLE
  5
6d9299cc
330
1F
  8
Layer
100
AcDbEntity
  6
CONTINUOUS
100
AcDbCircle
 10
2.040259698510323
 20
1.830455612819984
 30
0.0
 40
0.1968503937
  0
CIRCLE
  5
6a7a5928
330
1F
  8
Layer
100
AcDbEntity
  6
CONTINUOUS
100
AcDbCircle
 10
2.5196850393700796
 20
1.4821327136819056
 30
0.0
 40
0.1968503937
  0
CIRCLE
  5
57edbe91
330
1F
  8
Layer
100
AcDbEntity
  6
CONTINUOUS
100
AcDbCircle
 10
3.061054189173377
 20
1.2410996388483837
 30
0.0
 40
0.1968503937
  0
CIRCLE
  5
1e985d70
330
1F
  8
Layer
100
AcDbEntity
  6
CONTINUOUS
100
AcDbCircle
 10
3.640706718296416
 20
1.117890690294658
 30
0.0
 40
0.1968503937
  0
CIRCLE
  5
fc85d4b2
330
1F
  8
Layer
100
AcDbEntity
  6
CONTINUOUS
100
AcDbCircle
 10
4.233309029735082
 20
1.1178906902946584
 30
0.0
 40
0.1968503937
  0
CIRCLE
  5
299793b1
330
1F
  8
Layer
100
AcDbEntity
  6
CONTINUOUS
100
AcDbCircle
 10
4.8129615588581185
 20
1.2410996388483833
 30
0.0
 40
0.1968503937
  0
CIRCLE
  5
7056798f
330
1F
  8
Layer
100
AcDbEntity
  6
CONTINUOUS
100
AcDbCircle
 10
5.3543307086614185
 20
1.482132713681906
 30
0.0
 40
0.1968503937
  0
CIRCLE
  5
1d2d7ddf
330
1F
  8
Layer
100
AcDbEntity
  6
CONTINUOUS
100
AcDbCircle
 10
5.833756049521174
 20
1.830455612819985
 30
0.0
 40
0.1968503937
  0
CIRCLE
  5
1fba0c8d
330
1F
  8
Layer
100
AcDbEntity
  6
CONTINUOUS
100
AcDbCircle
 10
6.230284393503789
 20
2.2708449541315736
 30
0.0
 40
0.1968503937
  0
CIRCLE
  5
73d86adb
330
1F
  8
Layer
100
AcDbEntity
  6
CONTINUOUS
100
AcDbCircle
 10
6.526585549223121
 20
2.7840536101788347
 30
0.0
 40
0.1968503937
  0
CIRCLE
  5
435705c3
330
1F
  8
Layer
100
AcDbEntity
  6
CONTINUOUS
100
AcDbCircle
 10
6.709709734363544
 20
3.3476519000441476
 30
0.0
 40
0.1968503937
  0
CIRCLE
  5
5673bbc5
330
1F
  8
Layer
100
AcDbEntity
  6
CONTINUOUS
100
AcDbCircle
 10
7.244094488188977
 20
3.937007874015748
 30
0.0
 40
0.1968503937
  0
CIRCLE
  5
f27a48d1
330
1F
  8
Layer
100
AcDbEntity
  6
CONTINUOUS
100
AcDbCircle
 10
7.190948245759248
 20
4.527510990672656
 30
0.0
 40
0.1968503937
  0
CIRCLE
  5
788b5ace
330
1F
  8
Layer
100
AcDbEntity
  6
CONTINUOUS
100
AcDbCircle
 10
7.033217682430628
 20
5.099034851292629
 30
0.0
 40
0.1968503937
  0
CIRCLE
  5
edc0a875
330
1F
  8
Layer
100
AcDbEntity
  6
CONTINUOUS
100
AcDbCircle
 10
6.775972388289636
 20
5.633210208743941
 30
0.0
 40
0.1968503937
  0
CIRCLE
  5
12c2ae7b
330
1F
  8
Layer
100
AcDbEntity
  6
CONTINUOUS
100
AcDbCircle
 10
6.4274804387521
 20
6.1128682275171595
 30
0.0
 40
0.1968503937
  0
CIRCLE
  5
75bed804
330
1F
  8
Layer
100
AcDbEntity
  6
CONTINUOUS
100
AcDbCircle
 10
5.998942651816284
 20
6.522592304224981
 30
0.0
 40
0.1968503937
  0
CIRCLE
  5
716ae29d
330
1F
  8
Layer
100
AcDbEntity
  6
CONTINUOUS
100
AcDbCircle
 10
5.504132584556373
 20
6.849213569919922
 30
0.0
 40
0.1968503937
  0
CIRCLE
  5
348afc8a
330
1F
  8
Layer
100
AcDbEntity
  6
CONTINUOUS
100
AcDbCircle
 10
4.958953839665181
 20
7.082234148377673
 30
0.0
 40
0.1968503937
  0
CIRCLE
  5
9042c7b9
330
1F
  8
Layer
100
AcDbEntity
  6
CONTINUOUS
100
AcDbCircle
 10
4.380928910578073
 20
7.214164566476635
 30
0.0
 40
0.1968503937
  0
CIRCLE
  5
221aa87a
330
1F
  8
Layer
100
AcDbEntity
  6
CONTINUOUS
100
AcDbCircle
 10
3.7886359941164076
 20
7.240764472026395
 30
0.0
 40
0.1968503937
  0
CIRCLE
  5
fda2e173
330
1F
  8
Layer
100
AcDbEntity
  6
CONTINUOUS
100
AcDbCircle
 10
3.2011118719554963
 20
7.16117892217611
 30
0.0
 40
0.1968503937
  0
CIRCLE
  5
3f8a1b9d
330
1F
  8
Layer
100
AcDbEntity
  6
CONTINUOUS
100
AcDbCircle
 10
2.637240052798048
 20
6.9779658619811755
 30
0.0
 40
0.1968503937
  0
CIRCLE
  5
f4184e2d
330
1F
  8
Layer
100
AcDbEntity
  6
CONTINUOUS
100
AcDbCircle
 10
2.115143840867063
 20
6.697013909944466
 30
0.0
 40
0.1968503937
  0
CIRCLE
  5
eee5847d
330
1F
  8
Layer
100
AcDbEntity
  6
CONTINUOUS
100
AcDbCircle
 10
1.6516038379961957
 20
6.327353092972476
 30
0.0
 40
0.1968503937
  0
CIRCLE
  5
7efda1c2
330
1F
  8
Layer
100
AcDbEntity
  6
CONTINUOUS
100
AcDbCircle
 10
1.2615186012797017
 20
5.88086461388062
 30
0.0
 40
0.1968503937
  0
CIRCLE
  5
4a448ab8
330
1F
  8
Layer
100
AcDbEntity
  6
CONTINUOUS
100
AcDbCircle
 10
0.9574257911888502
 20
5.371898979758854
 30
0.0
 40
0.1968503937
  0
CIRCLE
  5
4d0d7954
330
1F
  8
Layer
100
AcDbEntity
  6
CONTINUOUS
100
AcDbCircle
 10
0.749099200848359
 20
4.81681476486617
 30
0.0
 40
0.1968503937
  0
CIRCLE
  5
0440c0d9
330
1F
  8
Layer
100
AcDbEntity
  6
CONTINUOUS
100
AcDbCircle
 10
0.643234618283461
 20
4.233452832594033
 30
0.0
 40
0.1968503937
  0
CIRCLE
  5
65a9f1dc
330
1F
  8
Layer
100
AcDbEntity
  6
CONTINUOUS
100
AcDbCircle
 10
0.643234618283461
 20
3.6405629154374646
 30
0.0
 40
0.1968503937
  0
CIRCLE
  5
70b40ed7
330
1F
  8
Layer
100
AcDbEntity
  6
CONTINUOUS
100
AcDbCircle
 10
0.7490992008483586
 20
3.057200983165327
 30
0.0
 40
0.1968503937
  0
CIRCLE
  5
e5bcc9e4
330
1F
  8
Layer
100
AcDbEntity
  6
CONTINUOUS
100
AcDbCircle
 10
0.9574257911888497
 20
2.502116768272643
 30
0.0
 40
0.1968503937
  0
CIRCLE
  5
50f5f15d
330
1F
  8
Layer
100
AcDbEntity
  6
CONTINUOUS
100
AcDbCircle
 10
1.2615186012797008
 20
1.9931511341508765
 30
0.0
 40
0.1968503937
  0
CIRCLE
  5
893be090
330
1F
  8
Layer
100
AcDbEntity
  6
CONTINUOUS
100
AcDbCircle
 10
1.6516038379961953
 20
1.5466626550590203
 30
0.0
 40
0.1968503937
  0
CIRCLE
  5
04c12335
330
1F
  8
Layer
100
AcDbEntity
  6
CONTINUOUS
100
AcDbCircle
 10
2.115143840867062
 20
1.1770018380870306
 30
0.0
 40
0.1968503937
  0
CIRCLE
  5
31043df3
330
1F
  8
Layer
100
AcDbEntity
  6
CONTINUOUS
100
AcDbCircle
 10
2.637240052798047
 20
0.8960498860503208
 30
0.0
 40
0.1968503937
  0
CIRCLE
  5
93744105
330
1F
  8
Layer
100
AcDbEntity
  6
CONTINUOUS
100
AcDbCircle
 10
3.2011118719554954
 20
0.7128368258553861
 30
0.0
 40
0.1968503937
  0
CIRCLE
  5
7b128a31
330
1F
  8
Layer
100
AcDbEntity
  6
CONTINUOUS
100
AcDbCircle
 10
3.788635994116407
 20
0.633251276005101
 30
0.0
 40
0.1968503937
  0
CIRCLE
  5
21b53941
330
1F
  8
Layer
100
AcDbEntity
  6
CONTINUOUS
100
AcDbCircle
 10
4.380928910578072
 20
0.6598511815548611
 30
0.0
 40
0.1968503937
  0
CIRCLE
  5
8c94785a
330
1F
  8
Layer
100
AcDbEntity
  6
CONTINUOUS
100
AcDbCircle
 10
4.958953839665179
 20
0.7917815996538224
 30
0.0
 40
0.1968503937
  0
CIRCLE
  5
eccced13
330
1F
  8
Layer
100
AcDbEntity
  6
CONTINUOUS
100
AcDbCircle
 10
5.504132584556373
 20
1.0248021781115746
 30
0.0
 40
0.1968503937
  0
CIRCLE
  5
d40f123d
330
1F
  8
Layer
100
AcDbEntity
  6
CONTINUOUS
100
AcDbCircle
 10
5.998942651816284
 20
1.3514234438065151
 30
0.0
 40
0.1968503937
  0
CIRCLE
  5
3f268f77
330
1F
  8
Layer
100
AcDbEntity
  6
CONTINUOUS
100
AcDbCircle
 10
6.427480438752099
 20
1.7611475205143354
 30
0.0
 40
0.1968503937
  0
CIRCLE
  5
64de6847
330
1F
  8
Layer
100
AcDbEntity
  6
CONTINUOUS
100
AcDbCircle
 10
6.775972388289636
 20
2.2408055392875537
 30
0.0
 40
0.1968503937
  0
CIRCLE
  5
3391d18a
330
1F
  8
Layer
100
AcDbEntity
  6
CONTINUOUS
100
AcDbCircle
 10
7.033217682430627
 20
2.7749808967388665
 30
0.0
 40
0.1968503937
  0
CIRCLE
  5
48330b81
330
1F
  8
Layer
100
AcDbEntity
  6
CONTINUOUS
100
AcDbCircle
 10
7.190948245759248
 20
3.346504757358839
 30
0.0
 40
0.1968503937
  0
CIRCLE
  5
3db36145
330
1F
  8
Layer
100
AcDbEntity
  6
CONTINUOUS
100
AcDbCircle
 10
7.716535433070867
 20
3.937007874015748
 30
0.0
 40
0.1968503937
  0
CIRCLE
  5
3a9f3285
330
1F
  8
Layer
100
AcDbEntity
  6
CONTINUOUS
100
AcDbCircle
 10
7.6700031770524895
 20
4.528256245821345
 30
0.0
 40
0.1968503937
  0
CIRCLE
  5
60616bfb
330
1F
  8
Layer
100
AcDbEntity
  6
CONTINUOUS
100
AcDbCircle
 10
7.531552187572235
 20
5.104946120472242
 30
0.0
 40
0.1968503937
  0
CIRCLE
  5
9d1e5dac
330
1F
  8
Layer
100
AcDbEntity
  6
CONTINUOUS
100
AcDbCircle
 10
7.304591587483596
 20
5.65287747933057
 30
0.0
 40
0.1968503937
  0
CIRCLE
  5
e2e45970
330
1F
  8
Layer
100
AcDbEntity
  6
CONTINUOUS
100
AcDbCircle
 10
6.994709899999801
 20
6.158558433861316
 30
0.0
 40
0.1968503937
  0
CIRCLE
  5
29b3c4a0
330
1F
  8
Layer
100
AcDbEntity
  6
CONTINUOUS
100
AcDbCircle
 10
6.609537440705062
 20
6.609537440705061
 30
0.0
 40
0.1968503937
  0
CIRCLE
  5
2326d6d1
330
1F
  8
Layer
100
AcDbEntity
  6
CONTINUOUS
100
AcDbCircle
 10
6.158558433861316
 20
6.994709899999801
 30
0.0
 40
0.1968503937
  0
CIRCLE
  5
46d65aef
330
1F
  8
Layer
100
AcDbEntity
  6
CONTINUOUS
100
AcDbCircle
 10
5.652877479330571
 20
7.304591587483595
 30
0.0
 40
0.1968503937
  0
CIRCLE
  5
42fdd8ff
330
1F
  8
Layer
100
AcDbEntity
  6
CONTINUOUS
100
AcDbCircle
 10
5.104946120472242
 20
7.531552187572235
 30
0.0
 40
0.1968503937
  0
CIRCLE
  5
d928a779
330
1F
  8
Layer
100
AcDbEntity
  6
CONTINUOUS
100
AcDbCircle
 10
4.528256245821345
 20
7.6700031770524895
 30
0.0
 40
0.1968503937
  0
CIRCLE
  5
81e67c31
330
1F
  8
Layer
100
AcDbEntity
  6
CONTINUOUS
100
AcDbCircle
 10
3.937007874015748
 20
7.716535433070867
 30
0.0
 40
0.1968503937
  0
CIRCLE
  5
7b136438
330
1F
  8
Layer
100
AcDbEntity
  6
CONTINUOUS
100
AcDbCircle
 10
3.345759502210151
 20
7.6700031770524895
 30
0.0
 40
0.1968503937
  0
CIRCLE
  5
9fa3f42d
330
1F
  8
Layer
100
AcDbEntity
  6
CONTINUOUS
100
AcDbCircle
 10
2.7690696275592543
 20
7.531552187572235
 30
0.0
 40
0.1968503937
  0
CIRCLE
  5
4f54f5da
330
1F
  8
Layer
100
AcDbEntity
  6
CONTINUOUS
100
AcDbCircle
 10
2.221138268700926
 20
7.304591587483596
 30
0.0
 40
0.1968503937
  0
CIRCLE
  5
dde34bcb
330
1F
  8
Layer
100
AcDbEntity
  6
CONTINUOUS
100
AcDbCircle
 10
1.7154573141701808
 20
6.994709899999801
 30
0.0
 40
0.1968503937
  0
CIRCLE
  5
c9ddce5b
330
1F
  8
Layer
100
AcDbEntity
  6
CONTINUOUS
100
AcDbCircle
 10
1.2644783073264345
 20
6.609537440705062
 30
0.0
 40
0.1968503937
  0
CIRCLE
  5
f74c3996
330
1F
  8
Layer
100
AcDbEntity
  6
CONTINUOUS
100
AcDbCircle
 10
0.8793058480316951
 20
6.158558433861316
 30
0.0
 40
0.1968503937
  0
CIRCLE
  5
9e52416e
330
1F
  8
Layer
100
AcDbEntity
  6
CONTINUOUS
100
AcDbCircle
 10
0.5694241605479009
 20
5.652877479330572
 30
0.0
 40
0.1968503937
  0
CIRCLE
  5
5f0931f9
330
1F
  8
Layer
100
AcDbEntity
  6
CONTINUOUS
100
AcDbCircle
 10
0.3424635604592621
 20
5.104946120472243
 30
0.0
 40
0.1968503937
  0
CIRCLE
  5
913aa84b
330
1F
  8
Layer
100
AcDbEntity
  6
CONTINUOUS
100
AcDbCircle
 10
0.20401257097900682
 20
4.528256245821345
 30
0.0
 40
0.1968503937
  0
CIRCLE
  5
8b8a45ec
330
1F
  8
Layer
100
AcDbEntity
  6
CONTINUOUS
100
AcDbCircle
 10
0.15748031496062964
 20
3.937007874015748
 30
0.0
 40
0.1968503937
  0
CIRCLE
  5
fa433b28
330
1F
  8
Layer
100
AcDbEntity
  6
CONTINUOUS
100
AcDbCircle
 10
0.20401257097900638
 20
3.345759502210152
 30
0.0
 40
0.1968503937
  0
CIRCLE
  5
ff870cd4
330
1F
  8
Layer
100
AcDbEntity
  6
CONTINUOUS
100
AcDbCircle
 10
0.34246356045926163
 20
2.7690696275592543
 30
0.0
 40
0.1968503937
  0
CIRCLE
  5
d9fe74a8
330
1F
  8
Layer
100
AcDbEntity
  6
CONTINUOUS
100
AcDbCircle
 10
0.5694241605479005
 20
2.221138268700926
 30
0.0
 40
0.1968503937
  0
CIRCLE
  5
a64a2da7
330
1F
  8
Layer
100
AcDbEntity
  6
CONTINUOUS
100
AcDbCircle
 10
0.8793058480316942
 20
1.7154573141701808
 30
0.0
 40
0.1968503937
  0
CIRCLE
  5
1b268dea
330
1F
  8
Layer
100
AcDbEntity
  6
CONTINUOUS
100
AcDbCircle
 10
1.2644783073264336
 20
1.2644783073264345
 30
0.0
 40
0.1968503937
  0
CIRCLE
  5
797e7885
330
1F
  8
Layer
100
AcDbEntity
  6
CONTINUOUS
100
AcDbCircle
 10
1.7154573141701799
 20
0.8793058480316951
 30
0.0
 40
0.1968503937
  0
CIRCLE
  5
c1dc7cd5
330
1F
  8
Layer
100
AcDbEntity
  6
CONTINUOUS
100
AcDbCircle
 10
2.221138268700925
 20
0.5694241605479009
 30
0.0
 40
0.1968503937
  0
CIRCLE
  5
a978666c
330
1F
  8
Layer
100
AcDbEntity
  6
CONTINUOUS
100
AcDbCircle
 10
2.7690696275592535
 20
0.3424635604592621
 30
0.0
 40
0.1968503937
  0
CIRCLE
  5
7c1d1b9b
330
1F
  8
Layer
100
AcDbEntity
  6
CONTINUOUS
100
AcDbCircle
 10
3.3457595022101505
 20
0.20401257097900682
 30
0.0
 40
0.1968503937
  0
CIRCLE
  5
17221bcc
330
1F
  8
Layer
100
AcDbEntity
  6
CONTINUOUS
100
AcDbCircle
 10
3.9370078740157473
 20
0.15748031496062964
 30
0.0
 40
0.1968503937
  0
CIRCLE
  5
08f7e79a
330
1F
  8
Layer
100
AcDbEntity
  6
CONTINUOUS
100
AcDbCircle
 10
4.5282562458213445
 20
0.20401257097900638
 30
0.0
 40
0.1968503937
  0
CIRCLE
  5
eaf2aaa2
330
1F
  8
Layer
100
AcDbEntity
  6
CONTINUOUS
100
AcDbCircle
 10
5.104946120472242
 20
0.34246356045926163
 30
0.0
 40
0.1968503937
  0
CIRCLE
  5
f3712129
330
1F
  8
Layer
100
AcDbEntity
  6
CONTINUOUS
100
AcDbCircle
 10
5.65287747933057
 20
0.5694241605479005
 30
0.0
 40
0.1968503937
  0
CIRCLE
  5
310317b3
330
1F
  8
Layer
100
AcDbEntity
  6
CONTINUOUS
100
AcDbCircle
 10
6.158558433861316
 20
0.8793058480316942
 30
0.0
 40
0.1968503937
  0
CIRCLE
  5
49fe722a
330
1F
  8
Layer
100
AcDbEntity
  6
CONTINUOUS
100
AcDbCircle
 10
6.609537440705061
 20
1.2644783073264336
 30
0.0
 40
0.1968503937
  0
CIRCLE
  5
92cb949e
330
1F
  8
Layer
100
AcDbEntity
  6
CONTINUOUS
100
AcDbCircle
 10
6.994709899999801
 20
1.7154573141701794
 30
0.0
 40
0.1968503937
  0
CIRCLE
  5
d4612012
330
1F
  8
Layer
100
AcDbEntity
  6
CONTINUOUS
100
AcDbCircle
 10
7.304591587483595
 20
2.2211382687009245
 30
0.0
 40
0.1968503937
  0
CIRCLE
  5
714fc897
330
1F
  8
Layer
100
AcDbEntity
  6
CONTINUOUS
100
AcDbCircle
 10
7.531552187572235
 20
2.7690696275592535
 30
0.0
 40
0.1968503937
  0
CIRCLE
  5
45b624e9
330
1F
  8
Layer
100
AcDbEntity
  6
CONTINUOUS
100
AcDbCircle
 10
7.6700031770524895
 20
3.34575950221015
 30
0.0
 40
0.1968503937
  0
ENDSEC
  0
SECTION
  2
OBJECTS
  0
DICTIONARY
  5
C
330
0
100
AcDbDictionary
  3
ACAD_GROUP
350
D
  3
ACAD_LAYOUT
350
1A
  3
ACAD_MLINESTYLE
350
17
  3
ACAD_PLOTSETTINGS
350
19
1001
ACAD
1000
TREAT_AS_HARD
1070
     0
  0
DICTIONARY
  5
D
102
{ACAD_REACTORS
330
C
102
}
330
C
100
AcDbDictionary
1001
ACAD
1000
TREAT_AS_HARD
1070
     0
  0
DICTIONARY
  5
1A
102
{ACAD_REACTORS
330
C
102
}
330
C
100
AcDbDictionary
1001
ACAD
1000
TREAT_AS_HARD
1070
     0
  0
DICTIONARY
  5
17
102
{ACAD_REACTORS
330
C
102
}
330
C
100
AcDbDictionary
  3
STANDARD
350
18
1001
ACAD
1000
TREAT_AS_HARD
1070
     0
  0
DICTIONARY
  5
19
102
{ACAD_REACTORS
330
C
102
}
330
C
100
AcDbDictionary
1001
ACAD
1000
TREAT_AS_HARD
1070
     0
  0
MLINESTYLE
  5
18
102
{ACAD_REACTORS
330
17
102
}
330
17
100
AcDbMlineStyle
  2
Standard
 70
     0
  3

 62
   256
 51
90.0
 52
90.0
 71
     2
 49
0.5
 62
   256
  6
BYLAYER
 49
-0.5
 62
   256
  6
BYLAYER
  0
ENDSEC
  0
EOF
