  0
SECTION
  2
HEADER
  9
$ACADVER
  1
AC1009
  9
$DWGCODEPAGE
  3
ansi_1252
  9
$INSBASE
 10
0.0
 20
0.0
 30
0.0
  9
$EXTMIN
 10
0.5831831569549402
 20
0.2083882042549402
 30
0.0
  9
$EXTMAX
 10
5.101769524445061
 20
4.726974571745059
 30
0.0
  9
$LIMMIN
 10
0.0
 20
0.0
  9
$LIMMAX
 10
11.0
 20
8.5
  9
$ORTHOMODE
 70
     0
  9
$REGENMODE
 70
     1
  9
$FILLMODE
 70
     1
  9
$QTEXTMODE
 70
     0
  9
$MIRRTEXT
 70
     1
  9
$DRAGMODE
 70
     2
  9
$LTSCALE
 40
1.0
  9
$OSMODE
 70
   511
  9
$ATTMODE
 70
     1
  9
$TEXTSIZE
 40
0.2
  9
$TRACEWID
 40
0.05
  9
$TEXTSTYLE
  7
STANDARD
  9
$CLAYER
  8
0
  9
$CELTYPE
  6
BYLAYER
  9
$CECOLOR
 62
   256
  9
$DIMSCALE
 40
1.0
  9
$DIMASZ
 40
0.13
  9
$DIMEXO
 40
0.05
  9
$DIMDLI
 40
0.38
  9
$DIMRND
 40
0.0
  9
$DIMDLE
 40
0.0
  9
$DIMEXE
 40
0.125
  9
$DIMTP
 40
0.0
  9
$DIMTM
 40
0.0
  9
$DIMTXT
 40
0.125
  9
$DIMCEN
 40
0.09
  9
$DIMTSZ
 40
0.0
  9
$DIMTOL
 70
     0
  9
$DIMLIM
 70
     0
  9
$DIMTIH
 70
     1
  9
$DIMTOH
 70
     1
  9
$DIMSE1
 70
     0
  9
$DIMSE2
 70
     0
  9
$DIMTAD
 70
     0
  9
$DIMZIN
 70
     0
  9
$DIMBLK
  1

  9
$DIMASO
 70
     1
  9
$DIMSHO
 70
     1
  9
$DIMPOST
  1

  9
$DIMAPOST
  1

  9
$DIMALT
 70
     0
  9
$DIMALTD
 70
     2
  9
$DIMALTF
 40
25.4
  9
$DIMLFAC
 40
1.0
  9
$DIMTOFL
 70
     0
  9
$DIMTVP
 40
0.0
  9
$DIMTIX
 70
     0
  9
$DIMSOXD
 70
     0
  9
$DIMSAH
 70
     0
  9
$DIMBLK1
  1

  9
$DIMBLK2
  1

  9
$DIMSTYLE
  2
STANDARD
  9
$DIMCLRD
 70
     0
  9
$DIMCLRE
 70
     0
  9
$DIMCLRT
 70
     0
  9
$DIMTFAC
 40
1.0
  9
$DIMGAP
 40
0.06
  9
$LUNITS
 70
     2
  9
$LUPREC
 70
     2
  9
$SKETCHINC
 40
0.1
  9
$FILLETRAD
 40
0.5
  9
$AUNITS
 70
     0
  9
$AUPREC
 70
     2
  9
$MENU
  1
.
  9
$ELEVATION
 40
0.0
  9
$PELEVATION
 40
0.0
  9
$THICKNESS
 40
0.0
  9
$LIMCHECK
 70
     0
  9
$CHAMFERA
 40
0.5
  9
$CHAMFERB
 40
0.5
  9
$SKPOLY
 70
     0
  9
$TDCREATE
 40
2453353.592125822
  9
$TDUPDATE
 40
2457644.785384988
  9
$TDINDWG
 40
0.0935016435
  9
$TDUSRTIMER
 40
2457644.90958956
  9
$USRTIMER
 70
     1
  9
$ANGBASE
 50
0.0
  9
$ANGDIR
 70
     0
  9
$PDMODE
 70
     0
  9
$PDSIZE
 40
-1.0
  9
$PLINEWID
 40
0.0
  9
$COORDS
 70
     1
  9
$SPLFRAME
 70
     0
  9
$SPLINETYPE
 70
     6
  9
$SPLINESEGS
 70
     8
  9
$ATTDIA
 70
     0
  9
$ATTREQ
 70
     1
  9
$HANDLING
 70
     1
  9
$HANDSEED
  5
1AB
  9
$SURFTAB1
 70
     6
  9
$SURFTAB2
 70
     6
  9
$SURFTYPE
 70
     6
  9
$SURFU
 70
     6
  9
$SURFV
 70
     6
  9
$UCSNAME
  2

  9
$UCSORG
 10
0.0
 20
0.0
 30
0.0
  9
$UCSXDIR
 10
1.0
 20
0.0
 30
0.0
  9
$UCSYDIR
 10
0.0
 20
1.0
 30
0.0
  9
$PUCSNAME
  2

  9
$PUCSORG
 10
0.0
 20
0.0
 30
0.0
  9
$PUCSXDIR
 10
1.0
 20
0.0
 30
0.0
  9
$PUCSYDIR
 10
0.0
 20
1.0
 30
0.0
  9
$USERI1
 70
     0
  9
$USERI2
 70
     0
  9
$USERI3
 70
     0
  9
$USERI4
 70
     0
  9
$USERI5
 70
     0
  9
$USERR1
 40
0.0
  9
$USERR2
 40
0.0
  9
$USERR3
 40
0.0
  9
$USERR4
 40
0.0
  9
$USERR5
 40
0.0
  9
$WORLDVIEW
 70
     1
  9
$SHADEDGE
 70
     3
  9
$SHADEDIF
 70
    70
  9
$TILEMODE
 70
     1
  9
$MAXACTVP
 70
    64
  9
$PLIMCHECK
 70
     0
  9
$PEXTMIN
 10
1.000000000000000E+20
 20
1.000000000000000E+20
 30
1.000000000000000E+20
  9
$PEXTMAX
 10
-1.000000000000000E+20
 20
-1.000000000000000E+20
 30
-1.000000000000000E+20
  9
$PLIMMIN
 10
0.0
 20
0.0
  9
$PLIMMAX
 10
9.015748031496063
 20
6.377952755905512
  9
$UNITMODE
 70
     0
  9
$VISRETAIN
 70
     1
  9
$PLINEGEN
 70
     0
  9
$PSLTSCALE
 70
     1
  0
ENDSEC
  0
SECTION
  2
TABLES
  0
TABLE
  2
VPORT
 70
     1
  0
VPORT
  2
*ACTIVE
 70
     0
 10
0.0
 20
0.0
 11
1.0
 21
1.0
 12
3.911121163834731
 22
2.529464449264451
 13
0.0
 23
0.0
 14
0.5
 24
0.5
 15
0.5
 25
0.5
 16
0.0
 26
0.0
 36
1.0
 17
0.0
 27
0.0
 37
0.0
 40
6.995490344451154
 41
1.693110647181628
 42
50.0
 43
0.0
 44
0.0
 50
0.0
 51
0.0
 71
    16
 72
  2000
 73
     1
 74
     3
 75
     0
 76
     0
 77
     0
 78
     0
  0
ENDTAB
  0
TABLE
  2
LTYPE
 70
     6
  0
LTYPE
  2
CONTINUOUS
 70
     0
  3
Solid line
 72
    65
 73
     0
 40
0.0
  0
LTYPE
  2
HIDDEN
 70
     0
  3
Hidden __ __ __ __ __ __ __ __ __ __ __ __ __ __
 72
    65
 73
     2
 40
0.075
 49
0.05
 49
-0.025
  0
LTYPE
  2
PHANTOM
 70
     0
  3
Phantom ______  __  __  ______  __  __  ______
 72
    65
 73
     6
 40
0.4999999999999999
 49
0.25
 49
-0.05
 49
0.05
 49
-0.05
 49
0.05
 49
-0.05
  0
LTYPE
  2
CENTER
 70
     0
  3
Center ____ _ ____ _ ____ _ ____ _ ____ _ ____
 72
    65
 73
     4
 40
0.4
 49
0.25
 49
-0.05
 49
0.05
 49
-0.05
  0
LTYPE
  2
CENTERX2
 70
     0
  3
Center (2x) ________  __  ________  __  _____
 72
    65
 73
     4
 40
0.7999999999999999
 49
0.5
 49
-0.1
 49
0.1
 49
-0.1
  0
LTYPE
  2
DOT2
 70
     0
  3
Dot (.5x) ........................................
 72
    65
 73
     2
 40
0.025
 49
0.0
 49
-0.025
  0
ENDTAB
  0
TABLE
  2
LAYER
 70
     1
  0
LAYER
  2
0
 70
     0
 62
     7
  6
CONTINUOUS
  0
ENDTAB
  0
TABLE
  2
STYLE
 70
     1
  0
STYLE
  2
STANDARD
 70
     0
 40
0.0
 41
1.0
 50
0.0
 71
     0
 42
0.2
  3
txt
  4

  0
ENDTAB
  0
TABLE
  2
VIEW
 70
     0
  0
ENDTAB
  0
TABLE
  2
UCS
 70
     0
  0
ENDTAB
  0
TABLE
  2
APPID
 70
     1
  0
APPID
  2
ACAD
 70
     0
  0
ENDTAB
  0
TABLE
  2
DIMSTYLE
 70
     1
  0
DIMSTYLE
  2
STANDARD
 70
     0
  3

  4

  5

  6

  7

 40
1.0
 41
0.18
 42
0.0625
 43
0.38
 44
0.18
 45
0.0
 46
0.0
 47
0.0
 48
0.0
140
0.18
141
0.09
142
0.0
143
25.4
144
1.0
145
0.0
146
1.0
147
0.09
 71
     0
 72
     0
 73
     1
 74
     1
 75
     0
 76
     0
 77
     0
 78
     0
170
     0
171
     2
172
     0
173
     0
174
     0
175
     0
176
     0
177
     0
178
     0
  0
ENDTAB
  0
ENDSEC
  0
SECTION
  2
BLOCKS
  0
BLOCK
  8
0
  2
$MODEL_SPACE
 70
     0
 10
0.0
 20
0.0
 30
0.0
  3
$MODEL_SPACE
  1

  0
ENDBLK
  5
21
  8
0
  0
BLOCK
 67
     1
  8
0
  2
$PAPER_SPACE
 70
     0
 10
0.0
 20
0.0
 30
0.0
  3
$PAPER_SPACE
  1

  0
ENDBLK
  5
76
 67
     1
  8
0
  0
ENDSEC
  0
SECTION
  2
ENTITIES
  0
CIRCLE
  5
40
  8
0
  6
CONTINUOUS
 62
     7
 10
4.909405474599999
 20
4.5346105219
 30
0.0
 40
0.1060000000000005
  0
CIRCLE
  5
41
  8
0
  6
CONTINUOUS
 62
     7
 10
0.7755472068000002
 20
4.5346105219
 30
0.0
 40
0.1060000000000002
  0
CIRCLE
  5
42
  8
0
  6
CONTINUOUS
 62
     7
 10
0.7755472068000002
 20
0.4007522542000001
 30
0.0
 40
0.106
  0
CIRCLE
  5
43
  8
0
  6
CONTINUOUS
 62
     7
 10
4.909405474599999
 20
0.4007522542000001
 30
0.0
 40
0.1060000000000003
  0
ARC
  5
44
  8
0
  6
CONTINUOUS
 62
     7
 10
2.842476340699999
 20
2.467681387999999
 30
0.0
 40
2.265000000000001
 50
94.06810075360002
 51
175.9318992464
  0
ARC
  5
45
  8
0
  6
CONTINUOUS
 62
     7
 10
2.842476340699999
 20
2.467681387999999
 30
0.0
 40
2.0775
 50
94.18712104089998
 51
175.8128789591
  0
ARC
  5
46
  8
0
  6
CONTINUOUS
 62
     7
 10
2.842476340699999
 20
2.467681387999999
 30
0.0
 40
1.952499999999999
 50
94.7421665997
 51
175.2578334003
  0
ARC
  5
47
  8
0
  6
CONTINUOUS
 62
     7
 10
2.842476340699999
 20
2.467681387999999
 30
0.0
 40
1.764999999999999
 50
94.90473809669999
 51
175.0952619033
  0
ARC
  5
48
  8
0
  6
CONTINUOUS
 62
     7
 10
2.842476340699999
 20
2.467681387999999
 30
0.0
 40
1.639999999999999
 50
95.68441770199999
 51
174.315582298
  0
ARC
  5
49
  8
0
  6
CONTINUOUS
 62
     7
 10
2.842476340699999
 20
2.467681387999999
 30
0.0
 40
1.452499999999999
 50
95.9197446016
 51
174.0802553984
  0
ARC
  5
4A
  8
0
  6
CONTINUOUS
 62
     7
 10
2.842476340699999
 20
2.467681387999999
 30
0.0
 40
1.327500000000001
 50
97.09516787810001
 51
172.9048321219
  0
ARC
  5
4B
  8
0
  6
CONTINUOUS
 62
     7
 10
2.842476340699999
 20
2.467681387999999
 30
0.0
 40
1.139999999999999
 50
97.46598820530004
 51
172.5340117947
  0
ARC
  5
4C
  8
0
  6
CONTINUOUS
 62
     7
 10
2.842476340699999
 20
2.467681387999999
 30
0.0
 40
1.014999999999999
 50
99.44158652649999
 51
170.5584134735
  0
ARC
  5
4D
  8
0
  6
CONTINUOUS
 62
     7
 10
2.842476340699999
 20
2.467681387999999
 30
0.0
 40
0.8274999999999998
 50
100.1113529143
 51
169.8886470857
  0
ARC
  5
4E
  8
0
  6
CONTINUOUS
 62
     7
 10
2.686226340699999
 20
4.6019695451
 30
0.0
 40
0.0625000000000004
 50
274.1871210409
 51
0.0
  0
ARC
  5
4F
  8
0
  6
CONTINUOUS
 62
     7
 10
2.686226340699999
 20
4.664632044599999
 30
0.0
 40
0.0625000000000005
 50
0.0
 51
94.06810075360002
  0
ARC
  5
50
  8
0
  6
CONTINUOUS
 62
     7
 10
2.686226340699999
 20
4.3512115676
 30
0.0
 40
0.0625000000000002
 50
0.0
 51
94.7421665997
  0
ARC
  5
51
  8
0
  6
CONTINUOUS
 62
     7
 10
2.686226340699999
 20
4.2884895019
 30
0.0
 40
0.0625000000000004
 50
274.9047380966999
 51
0.0
  0
ARC
  5
52
  8
0
  6
CONTINUOUS
 62
     7
 10
0.6455256841
 20
2.623931387999999
 30
0.0
 40
0.0625000000000005
 50
175.9318992464
 51
270.0
  0
ARC
  5
53
  8
0
  6
CONTINUOUS
 62
     7
 10
0.7081881836
 20
2.623931387999999
 30
0.0
 40
0.0625000000000001
 50
270.0
 51
355.8128789591
  0
ARC
  5
54
  8
0
  6
CONTINUOUS
 62
     7
 10
0.9589461610999999
 20
2.623931387999999
 30
0.0
 40
0.0625
 50
175.2578334003
 51
270.0
  0
ARC
  5
55
  8
0
  6
CONTINUOUS
 62
     7
 10
1.0216682268
 20
2.623931387999999
 30
0.0
 40
0.0625
 50
270.0
 51
355.0952619033001
  0
ARC
  5
56
  8
0
  6
CONTINUOUS
 62
     7
 10
1.2727336269
 20
2.623931387999999
 30
0.0
 40
0.0625000000000004
 50
174.315582298
 51
270.0
  0
ARC
  5
57
  8
0
  6
CONTINUOUS
 62
     7
 10
1.335555328299999
 20
2.623931387999999
 30
0.0
 40
0.0624999999999999
 50
270.0
 51
354.0802553984
  0
ARC
  5
58
  8
0
  6
CONTINUOUS
 62
     7
 10
1.5871632572
 20
2.623931387999999
 30
0.0
 40
0.0625000000000005
 50
172.9048321219
 51
270.0
  0
ARC
  5
144
  8
0
  6
CONTINUOUS
 62
     7
 10
1.650170931999999
 20
2.623931387999999
 30
0.0
 40
0.0624999999999999
 50
270.0
 51
352.5340117947
  0
ARC
  5
145
  8
0
  6
CONTINUOUS
 62
     7
 10
1.902879518899999
 20
2.623931387999999
 30
0.0
 40
0.0625
 50
170.5584134735
 51
270.0
  0
ARC
  5
5B
  8
0
  6
CONTINUOUS
 62
     7
 10
1.9662994536
 20
2.623931387999999
 30
0.0
 40
0.0625
 50
270.0
 51
349.8886470857
  0
ARC
  5
5C
  8
0
  6
CONTINUOUS
 62
     7
 10
2.686226340699999
 20
3.3438582751
 30
0.0
 40
0.0625000000000004
 50
280.1113529143
 51
0.0
  0
ARC
  5
5D
  8
0
  6
CONTINUOUS
 62
     7
 10
2.686226340699999
 20
3.4072782098
 30
0.0
 40
0.0625000000000004
 50
0.0
 51
99.44158652649999
  0
ARC
  5
146
  8
0
  6
CONTINUOUS
 62
     7
 10
2.686226340699999
 20
3.6599867967
 30
0.0
 40
0.0625000000000004
 50
277.4659882053
 51
0.0
  0
ARC
  5
5F
  8
0
  6
CONTINUOUS
 62
     7
 10
2.686226340699999
 20
3.722994471499999
 30
0.0
 40
0.0625000000000004
 50
0.0
 51
97.09516787810001
  0
ARC
  5
60
  8
0
  6
CONTINUOUS
 62
     7
 10
2.686226340699999
 20
3.9746024004
 30
0.0
 40
0.0625000000000004
 50
275.9197446016
 51
0.0
  0
ARC
  5
61
  8
0
  6
CONTINUOUS
 62
     7
 10
2.686226340699999
 20
4.0374241018
 30
0.0
 40
0.0625000000000004
 50
0.0
 51
95.68441770199999
  0
ARC
  5
62
  8
0
  6
CONTINUOUS
 62
     7
 10
2.842476340699999
 20
2.467681387999999
 30
0.0
 40
2.265000000000001
 50
4.068100753599999
 51
85.93189924639998
  0
ARC
  5
63
  8
0
  6
CONTINUOUS
 62
     7
 10
2.842476340699999
 20
2.467681387999999
 30
0.0
 40
2.0775
 50
4.1871210409
 51
85.8128789591
  0
ARC
  5
64
  8
0
  6
CONTINUOUS
 62
     7
 10
2.842476340699999
 20
2.467681387999999
 30
0.0
 40
1.952499999999999
 50
4.742166599700001
 51
85.25783340030002
  0
ARC
  5
65
  8
0
  6
CONTINUOUS
 62
     7
 10
2.842476340699999
 20
2.467681387999999
 30
0.0
 40
1.764999999999999
 50
4.9047380967
 51
85.09526190329998
  0
ARC
  5
66
  8
0
  6
CONTINUOUS
 62
     7
 10
2.842476340699999
 20
2.467681387999999
 30
0.0
 40
1.639999999999999
 50
5.684417702
 51
84.31558229800001
  0
ARC
  5
67
  8
0
  6
CONTINUOUS
 62
     7
 10
2.842476340699999
 20
2.467681387999999
 30
0.0
 40
1.4525
 50
5.919744601599999
 51
84.0802553984
  0
ARC
  5
68
  8
0
  6
CONTINUOUS
 62
     7
 10
2.842476340699999
 20
2.467681387999999
 30
0.0
 40
1.327499999999999
 50
7.0951678781
 51
82.90483212190001
  0
ARC
  5
69
  8
0
  6
CONTINUOUS
 62
     7
 10
2.842476340699999
 20
2.467681387999999
 30
0.0
 40
1.139999999999999
 50
7.465988205299999
 51
82.5340117947
  0
ARC
  5
6A
  8
0
  6
CONTINUOUS
 62
     7
 10
2.842476340699999
 20
2.467681387999999
 30
0.0
 40
1.014999999999999
 50
9.4415865265
 51
80.55841347350002
  0
ARC
  5
147
  8
0
  6
CONTINUOUS
 62
     7
 10
2.842476340699999
 20
2.467681387999999
 30
0.0
 40
0.8275
 50
10.1113529143
 51
79.8886470857
  0
ARC
  5
148
  8
0
  6
CONTINUOUS
 62
     7
 10
4.976764497799999
 20
2.623931387999999
 30
0.0
 40
0.0625000000000004
 50
184.1871210409
 51
270.0
  0
ARC
  5
6D
  8
0
  6
CONTINUOUS
 62
     7
 10
5.0394269973
 20
2.623931387999999
 30
0.0
 40
0.0625000000000014
 50
270.0
 51
4.068100753599999
  0
ARC
  5
6E
  8
0
  6
CONTINUOUS
 62
     7
 10
4.726006520299999
 20
2.623931387999999
 30
0.0
 40
0.0625000000000004
 50
270.0
 51
4.742166599700001
  0
ARC
  5
6F
  8
0
  6
CONTINUOUS
 62
     7
 10
4.663284454599999
 20
2.623931387999999
 30
0.0
 40
0.0625000000000001
 50
184.9047380967
 51
270.0
  0
ARC
  5
70
  8
0
  6
CONTINUOUS
 62
     7
 10
2.998726340699999
 20
4.664632044599999
 30
0.0
 40
0.0625000000000006
 50
85.93189924639998
 51
180.0
  0
ARC
  5
71
  8
0
  6
CONTINUOUS
 62
     7
 10
2.998726340699999
 20
4.6019695451
 30
0.0
 40
0.0625
 50
180.0
 51
265.8128789591
  0
ARC
  5
72
  8
0
  6
CONTINUOUS
 62
     7
 10
2.998726340699999
 20
4.3512115676
 30
0.0
 40
0.0625000000000002
 50
85.25783340030002
 51
180.0
  0
ARC
  5
149
  8
0
  6
CONTINUOUS
 62
     7
 10
2.998726340699999
 20
4.2884895019
 30
0.0
 40
0.0625000000000004
 50
180.0
 51
265.0952619033001
  0
ARC
  5
14A
  8
0
  6
CONTINUOUS
 62
     7
 10
2.998726340699999
 20
4.0374241018
 30
0.0
 40
0.0625000000000004
 50
84.31558229800001
 51
180.0
  0
ARC
  5
14B
  8
0
  6
CONTINUOUS
 62
     7
 10
2.998726340699999
 20
3.9746024004
 30
0.0
 40
0.0625000000000006
 50
180.0
 51
264.0802553984
  0
ARC
  5
14C
  8
0
  6
CONTINUOUS
 62
     7
 10
2.998726340699999
 20
3.722994471499999
 30
0.0
 40
0.0625000000000006
 50
82.90483212190001
 51
180.0
  0
ARC
  5
77
  8
0
  6
CONTINUOUS
 62
     7
 10
2.998726340699999
 20
3.6599867967
 30
0.0
 40
0.0625000000000004
 50
180.0
 51
262.5340117947
  0
ARC
  5
78
  8
0
  6
CONTINUOUS
 62
     7
 10
2.998726340699999
 20
3.4072782098
 30
0.0
 40
0.0625
 50
80.55841347350002
 51
180.0
  0
ARC
  5
79
  8
0
  6
CONTINUOUS
 62
     7
 10
2.998726340699999
 20
3.3438582751
 30
0.0
 40
0.0625000000000004
 50
180.0
 51
259.8886470857
  0
ARC
  5
7A
  8
0
  6
CONTINUOUS
 62
     7
 10
3.718653227799999
 20
2.623931387999999
 30
0.0
 40
0.0625000000000004
 50
190.1113529143
 51
270.0
  0
ARC
  5
7B
  8
0
  6
CONTINUOUS
 62
     7
 10
3.7820731625
 20
2.623931387999999
 30
0.0
 40
0.0625000000000004
 50
270.0
 51
9.4415865265
  0
ARC
  5
7C
  8
0
  6
CONTINUOUS
 62
     7
 10
4.0347817493
 20
2.623931387999999
 30
0.0
 40
0.0625000000000004
 50
187.4659882053
 51
270.0
  0
ARC
  5
7D
  8
0
  6
CONTINUOUS
 62
     7
 10
4.0977894242
 20
2.623931387999999
 30
0.0
 40
0.0625000000000004
 50
270.0
 51
7.0951678781
  0
ARC
  5
7E
  8
0
  6
CONTINUOUS
 62
     7
 10
4.349397353099999
 20
2.623931387999999
 30
0.0
 40
0.0624999999999996
 50
185.9197446016
 51
270.0
  0
ARC
  5
7F
  8
0
  6
CONTINUOUS
 62
     7
 10
4.412219054499999
 20
2.623931387999999
 30
0.0
 40
0.0625000000000004
 50
270.0
 51
5.684417702
  0
ARC
  5
80
  8
0
  6
CONTINUOUS
 62
     7
 10
2.842476340699999
 20
2.467681387999999
 30
0.0
 40
2.265000000000001
 50
274.0681007536
 51
355.9318992464
  0
ARC
  5
81
  8
0
  6
CONTINUOUS
 62
     7
 10
2.842476340699999
 20
2.467681387999999
 30
0.0
 40
2.0775
 50
274.1871210409
 51
355.8128789591
  0
ARC
  5
82
  8
0
  6
CONTINUOUS
 62
     7
 10
2.842476340699999
 20
2.467681387999999
 30
0.0
 40
1.952499999999999
 50
274.7421665997
 51
355.2578334003001
  0
ARC
  5
83
  8
0
  6
CONTINUOUS
 62
     7
 10
2.842476340699999
 20
2.467681387999999
 30
0.0
 40
1.764999999999999
 50
274.9047380966999
 51
355.0952619033001
  0
ARC
  5
84
  8
0
  6
CONTINUOUS
 62
     7
 10
2.842476340699999
 20
2.467681387999999
 30
0.0
 40
1.64
 50
275.684417702
 51
354.3155822980001
  0
ARC
  5
85
  8
0
  6
CONTINUOUS
 62
     7
 10
2.842476340699999
 20
2.467681387999999
 30
0.0
 40
1.452499999999999
 50
275.9197446016
 51
354.0802553984
  0
ARC
  5
86
  8
0
  6
CONTINUOUS
 62
     7
 10
2.842476340699999
 20
2.467681387999999
 30
0.0
 40
1.327500000000001
 50
277.0951678781
 51
352.9048321219
  0
ARC
  5
87
  8
0
  6
CONTINUOUS
 62
     7
 10
2.842476340699999
 20
2.467681387999999
 30
0.0
 40
1.139999999999999
 50
277.4659882053
 51
352.5340117947
  0
ARC
  5
88
  8
0
  6
CONTINUOUS
 62
     7
 10
2.842476340699999
 20
2.467681387999999
 30
0.0
 40
1.014999999999999
 50
279.4415865265
 51
350.5584134735
  0
ARC
  5
89
  8
0
  6
CONTINUOUS
 62
     7
 10
2.842476340699999
 20
2.467681387999999
 30
0.0
 40
0.8275000000000003
 50
280.1113529143
 51
349.8886470857
  0
ARC
  5
8A
  8
0
  6
CONTINUOUS
 62
     7
 10
2.998726340699999
 20
0.3333932309
 30
0.0
 40
0.0625
 50
94.18712104089998
 51
180.0
  0
ARC
  5
8B
  8
0
  6
CONTINUOUS
 62
     7
 10
2.998726340699999
 20
0.2707307314
 30
0.0
 40
0.0625000000000005
 50
180.0
 51
274.0681007536
  0
ARC
  5
8C
  8
0
  6
CONTINUOUS
 62
     7
 10
2.998726340699999
 20
0.5841512084
 30
0.0
 40
0.0625000000000004
 50
180.0
 51
274.7421665997
  0
ARC
  5
8D
  8
0
  6
CONTINUOUS
 62
     7
 10
2.998726340699999
 20
0.6468732742000001
 30
0.0
 40
0.0625
 50
94.90473809669999
 51
180.0
  0
ARC
  5
8E
  8
0
  6
CONTINUOUS
 62
     7
 10
5.0394269973
 20
2.311431387999999
 30
0.0
 40
0.0625000000000014
 50
355.9318992464
 51
90.0
  0
ARC
  5
8F
  8
0
  6
CONTINUOUS
 62
     7
 10
4.976764497799999
 20
2.311431387999999
 30
0.0
 40
0.0625
 50
90.0
 51
175.8128789591
  0
ARC
  5
90
  8
0
  6
CONTINUOUS
 62
     7
 10
4.726006520299999
 20
2.311431387999999
 30
0.0
 40
0.0625000000000002
 50
355.2578334003001
 51
90.0
  0
ARC
  5
91
  8
0
  6
CONTINUOUS
 62
     7
 10
4.663284454599999
 20
2.311431387999999
 30
0.0
 40
0.0625
 50
90.0
 51
175.0952619033
  0
ARC
  5
14D
  8
0
  6
CONTINUOUS
 62
     7
 10
4.412219054499999
 20
2.311431387999999
 30
0.0
 40
0.0625000000000004
 50
354.3155822980001
 51
90.0
  0
ARC
  5
14E
  8
0
  6
CONTINUOUS
 62
     7
 10
4.349397353099999
 20
2.311431387999999
 30
0.0
 40
0.0625000000000002
 50
90.0
 51
174.0802553984
  0
ARC
  5
94
  8
0
  6
CONTINUOUS
 62
     7
 10
4.0977894242
 20
2.311431387999999
 30
0.0
 40
0.0625000000000006
 50
352.9048321219
 51
90.0
  0
ARC
  5
95
  8
0
  6
CONTINUOUS
 62
     7
 10
4.0347817493
 20
2.311431387999999
 30
0.0
 40
0.0625000000000002
 50
90.0
 51
172.5340117947
  0
ARC
  5
96
  8
0
  6
CONTINUOUS
 62
     7
 10
3.7820731625
 20
2.311431387999999
 30
0.0
 40
0.0625
 50
350.5584134735
 51
90.0
  0
ARC
  5
14F
  8
0
  6
CONTINUOUS
 62
     7
 10
3.718653227799999
 20
2.311431387999999
 30
0.0
 40
0.0625000000000003
 50
90.0
 51
169.8886470857
  0
ARC
  5
150
  8
0
  6
CONTINUOUS
 62
     7
 10
2.998726340699999
 20
1.591504500899999
 30
0.0
 40
0.0625000000000004
 50
100.1113529143
 51
180.0
  0
ARC
  5
151
  8
0
  6
CONTINUOUS
 62
     7
 10
2.998726340699999
 20
1.528084566199999
 30
0.0
 40
0.0625000000000004
 50
180.0
 51
279.4415865265
  0
ARC
  5
152
  8
0
  6
CONTINUOUS
 62
     7
 10
2.998726340699999
 20
1.275375979399999
 30
0.0
 40
0.0625000000000004
 50
97.46598820530004
 51
180.0
  0
ARC
  5
153
  8
0
  6
CONTINUOUS
 62
     7
 10
2.998726340699999
 20
1.2123683046
 30
0.0
 40
0.0625000000000004
 50
180.0
 51
277.0951678781
  0
ARC
  5
154
  8
0
  6
CONTINUOUS
 62
     7
 10
2.998726340699999
 20
0.9607603757
 30
0.0
 40
0.0625
 50
95.9197446016
 51
180.0
  0
ARC
  5
155
  8
0
  6
CONTINUOUS
 62
     7
 10
2.998726340699999
 20
0.8979386742
 30
0.0
 40
0.0625000000000004
 50
180.0
 51
275.684417702
  0
ARC
  5
156
  8
0
  6
CONTINUOUS
 62
     7
 10
2.842476340699999
 20
2.467681387999999
 30
0.0
 40
2.265000000000001
 50
184.0681007536
 51
265.9318992464
  0
ARC
  5
157
  8
0
  6
CONTINUOUS
 62
     7
 10
2.842476340699999
 20
2.467681387999999
 30
0.0
 40
2.0775
 50
184.1871210409
 51
265.8128789591
  0
ARC
  5
158
  8
0
  6
CONTINUOUS
 62
     7
 10
2.842476340699999
 20
2.467681387999999
 30
0.0
 40
1.952499999999999
 50
184.7421665997
 51
265.2578334003
  0
ARC
  5
159
  8
0
  6
CONTINUOUS
 62
     7
 10
2.842476340699999
 20
2.467681387999999
 30
0.0
 40
1.764999999999999
 50
184.9047380967
 51
265.0952619033001
  0
ARC
  5
15A
  8
0
  6
CONTINUOUS
 62
     7
 10
2.842476340699999
 20
2.467681387999999
 30
0.0
 40
1.64
 50
185.684417702
 51
264.315582298
  0
ARC
  5
15B
  8
0
  6
CONTINUOUS
 62
     7
 10
2.842476340699999
 20
2.467681387999999
 30
0.0
 40
1.452499999999999
 50
185.9197446016
 51
264.0802553984
  0
ARC
  5
15C
  8
0
  6
CONTINUOUS
 62
     7
 10
2.842476340699999
 20
2.467681387999999
 30
0.0
 40
1.327500000000001
 50
187.0951678781
 51
262.9048321219
  0
ARC
  5
15D
  8
0
  6
CONTINUOUS
 62
     7
 10
2.842476340699999
 20
2.467681387999999
 30
0.0
 40
1.139999999999999
 50
187.4659882053
 51
262.5340117947
  0
ARC
  5
15E
  8
0
  6
CONTINUOUS
 62
     7
 10
2.842476340699999
 20
2.467681387999999
 30
0.0
 40
1.014999999999999
 50
189.4415865265
 51
260.5584134735
  0
ARC
  5
15F
  8
0
  6
CONTINUOUS
 62
     7
 10
2.842476340699999
 20
2.467681387999999
 30
0.0
 40
0.8274999999999998
 50
190.1113529143
 51
259.8886470857
  0
ARC
  5
160
  8
0
  6
CONTINUOUS
 62
     7
 10
0.7081881836
 20
2.311431387999999
 30
0.0
 40
0.0625
 50
4.1871210409
 51
90.0
  0
ARC
  5
161
  8
0
  6
CONTINUOUS
 62
     7
 10
0.6455256841
 20
2.311431387999999
 30
0.0
 40
0.0625000000000005
 50
90.0
 51
184.0681007536
  0
ARC
  5
162
  8
0
  6
CONTINUOUS
 62
     7
 10
0.9589461610999999
 20
2.311431387999999
 30
0.0
 40
0.0625
 50
90.0
 51
184.7421665997
  0
ARC
  5
163
  8
0
  6
CONTINUOUS
 62
     7
 10
1.0216682268
 20
2.311431387999999
 30
0.0
 40
0.0624999999999998
 50
4.9047380967
 51
90.0
  0
ARC
  5
164
  8
0
  6
CONTINUOUS
 62
     7
 10
2.686226340699999
 20
0.2707307314
 30
0.0
 40
0.0625000000000006
 50
265.9318992464
 51
0.0
  0
ARC
  5
165
  8
0
  6
CONTINUOUS
 62
     7
 10
2.686226340699999
 20
0.3333932309
 30
0.0
 40
0.0625000000000001
 50
0.0
 51
85.8128789591
  0
ARC
  5
166
  8
0
  6
CONTINUOUS
 62
     7
 10
2.686226340699999
 20
0.5841512084
 30
0.0
 40
0.0624999999999999
 50
265.2578334003
 51
0.0
  0
ARC
  5
167
  8
0
  6
CONTINUOUS
 62
     7
 10
2.686226340699999
 20
0.6468732742000001
 30
0.0
 40
0.0625
 50
0.0
 51
85.09526190329998
  0
ARC
  5
168
  8
0
  6
CONTINUOUS
 62
     7
 10
2.686226340699999
 20
0.8979386742
 30
0.0
 40
0.0625000000000005
 50
264.315582298
 51
0.0
  0
ARC
  5
169
  8
0
  6
CONTINUOUS
 62
     7
 10
2.686226340699999
 20
0.9607603757
 30
0.0
 40
0.0624999999999999
 50
0.0
 51
84.0802553984
  0
ARC
  5
16A
  8
0
  6
CONTINUOUS
 62
     7
 10
2.686226340699999
 20
1.2123683046
 30
0.0
 40
0.0625000000000007
 50
262.9048321219
 51
0.0
  0
ARC
  5
16B
  8
0
  6
CONTINUOUS
 62
     7
 10
2.686226340699999
 20
1.275375979399999
 30
0.0
 40
0.0624999999999999
 50
0.0
 51
82.5340117947
  0
ARC
  5
16C
  8
0
  6
CONTINUOUS
 62
     7
 10
2.686226340699999
 20
1.528084566199999
 30
0.0
 40
0.0624999999999997
 50
260.5584134735
 51
0.0
  0
ARC
  5
16D
  8
0
  6
CONTINUOUS
 62
     7
 10
2.686226340699999
 20
1.591504500899999
 30
0.0
 40
0.0625000000000004
 50
0.0
 51
79.8886470857
  0
ARC
  5
16E
  8
0
  6
CONTINUOUS
 62
     7
 10
1.9662994536
 20
2.311431387999999
 30
0.0
 40
0.0625000000000004
 50
10.1113529143
 51
90.0
  0
ARC
  5
16F
  8
0
  6
CONTINUOUS
 62
     7
 10
1.902879518899999
 20
2.311431387999999
 30
0.0
 40
0.0625
 50
90.0
 51
189.4415865265
  0
ARC
  5
170
  8
0
  6
CONTINUOUS
 62
     7
 10
1.650170931999999
 20
2.311431387999999
 30
0.0
 40
0.0625
 50
7.465988205299999
 51
90.0
  0
ARC
  5
171
  8
0
  6
CONTINUOUS
 62
     7
 10
1.5871632572
 20
2.311431387999999
 30
0.0
 40
0.0625
 50
90.0
 51
187.0951678781
  0
ARC
  5
172
  8
0
  6
CONTINUOUS
 62
     7
 10
1.335555328299999
 20
2.311431387999999
 30
0.0
 40
0.0625
 50
5.919744601599999
 51
90.0
  0
ARC
  5
BB
  8
0
  6
CONTINUOUS
 62
     7
 10
1.2727336269
 20
2.311431387999999
 30
0.0
 40
0.0625000000000004
 50
90.0
 51
185.684417702
  0
LINE
  5
C2
  8
0
  6
CONTINUOUS
 62
     7
 10
1.9662994536
 20
2.561431387999999
 30
0.0
 11
1.902879518899999
 21
2.561431387999999
 31
0.0
  0
LINE
  5
C3
  8
0
  6
CONTINUOUS
 62
     7
 10
2.748726340699999
 20
3.3438582751
 30
0.0
 11
2.748726340699999
 21
3.4072782098
 31
0.0
  0
LINE
  5
C4
  8
0
  6
CONTINUOUS
 62
     7
 10
2.748726340699999
 20
3.6599867967
 30
0.0
 11
2.748726340699999
 21
3.722994471499999
 31
0.0
  0
LINE
  5
C5
  8
0
  6
CONTINUOUS
 62
     7
 10
2.748726340699999
 20
3.9746024004
 30
0.0
 11
2.748726340699999
 21
4.0374241018
 31
0.0
  0
LINE
  5
C6
  8
0
  6
CONTINUOUS
 62
     7
 10
2.748726340699999
 20
4.2884895019
 30
0.0
 11
2.748726340699999
 21
4.3512115676
 31
0.0
  0
LINE
  5
C7
  8
0
  6
CONTINUOUS
 62
     7
 10
2.748726340699999
 20
4.6019695451
 30
0.0
 11
2.748726340699999
 21
4.664632044599999
 31
0.0
  0
LINE
  5
C8
  8
0
  6
CONTINUOUS
 62
     7
 10
0.7081881836
 20
2.561431387999999
 30
0.0
 11
0.6455256841
 21
2.561431387999999
 31
0.0
  0
LINE
  5
C9
  8
0
  6
CONTINUOUS
 62
     7
 10
1.0216682268
 20
2.561431387999999
 30
0.0
 11
0.9589461610999999
 21
2.561431387999999
 31
0.0
  0
LINE
  5
CA
  8
0
  6
CONTINUOUS
 62
     7
 10
1.335555328299999
 20
2.561431387999999
 30
0.0
 11
1.2727336269
 21
2.561431387999999
 31
0.0
  0
LINE
  5
CB
  8
0
  6
CONTINUOUS
 62
     7
 10
1.650170931999999
 20
2.561431387999999
 30
0.0
 11
1.5871632572
 21
2.561431387999999
 31
0.0
  0
LINE
  5
CC
  8
0
  6
CONTINUOUS
 62
     7
 10
2.936226340699999
 20
3.3438582751
 30
0.0
 11
2.936226340699999
 21
3.4072782098
 31
0.0
  0
LINE
  5
CD
  8
0
  6
CONTINUOUS
 62
     7
 10
3.718653227799999
 20
2.561431387999999
 30
0.0
 11
3.7820731625
 21
2.561431387999999
 31
0.0
  0
LINE
  5
CE
  8
0
  6
CONTINUOUS
 62
     7
 10
4.0347817493
 20
2.561431387999999
 30
0.0
 11
4.0977894242
 21
2.561431387999999
 31
0.0
  0
LINE
  5
CF
  8
0
  6
CONTINUOUS
 62
     7
 10
4.349397353099999
 20
2.561431387999999
 30
0.0
 11
4.412219054499999
 21
2.561431387999999
 31
0.0
  0
LINE
  5
D0
  8
0
  6
CONTINUOUS
 62
     7
 10
4.663284454599999
 20
2.561431387999999
 30
0.0
 11
4.726006520299999
 21
2.561431387999999
 31
0.0
  0
LINE
  5
D1
  8
0
  6
CONTINUOUS
 62
     7
 10
4.976764497799999
 20
2.561431387999999
 30
0.0
 11
5.0394269973
 21
2.561431387999999
 31
0.0
  0
LINE
  5
D2
  8
0
  6
CONTINUOUS
 62
     7
 10
2.936226340699999
 20
4.6019695451
 30
0.0
 11
2.936226340699999
 21
4.664632044599999
 31
0.0
  0
LINE
  5
D3
  8
0
  6
CONTINUOUS
 62
     7
 10
2.936226340699999
 20
4.2884895019
 30
0.0
 11
2.936226340699999
 21
4.3512115676
 31
0.0
  0
LINE
  5
D4
  8
0
  6
CONTINUOUS
 62
     7
 10
2.936226340699999
 20
3.9746024004
 30
0.0
 11
2.936226340699999
 21
4.0374241018
 31
0.0
  0
LINE
  5
D5
  8
0
  6
CONTINUOUS
 62
     7
 10
2.936226340699999
 20
3.6599867967
 30
0.0
 11
2.936226340699999
 21
3.722994471499999
 31
0.0
  0
LINE
  5
D6
  8
0
  6
CONTINUOUS
 62
     7
 10
3.718653227799999
 20
2.373931387999999
 30
0.0
 11
3.7820731625
 21
2.373931387999999
 31
0.0
  0
LINE
  5
D7
  8
0
  6
CONTINUOUS
 62
     7
 10
2.936226340699999
 20
1.591504500899999
 30
0.0
 11
2.936226340699999
 21
1.528084566199999
 31
0.0
  0
LINE
  5
D8
  8
0
  6
CONTINUOUS
 62
     7
 10
2.936226340699999
 20
1.275375979399999
 30
0.0
 11
2.936226340699999
 21
1.2123683046
 31
0.0
  0
LINE
  5
D9
  8
0
  6
CONTINUOUS
 62
     7
 10
2.936226340699999
 20
0.9607603757
 30
0.0
 11
2.936226340699999
 21
0.8979386742
 31
0.0
  0
LINE
  5
DA
  8
0
  6
CONTINUOUS
 62
     7
 10
2.936226340699999
 20
0.6468732742000001
 30
0.0
 11
2.936226340699999
 21
0.5841512084
 31
0.0
  0
LINE
  5
DB
  8
0
  6
CONTINUOUS
 62
     7
 10
2.936226340699999
 20
0.3333932309
 30
0.0
 11
2.936226340699999
 21
0.2707307314
 31
0.0
  0
LINE
  5
DC
  8
0
  6
CONTINUOUS
 62
     7
 10
4.976764497799999
 20
2.373931387999999
 30
0.0
 11
5.0394269973
 21
2.373931387999999
 31
0.0
  0
LINE
  5
DD
  8
0
  6
CONTINUOUS
 62
     7
 10
4.663284454599999
 20
2.373931387999999
 30
0.0
 11
4.726006520299999
 21
2.373931387999999
 31
0.0
  0
LINE
  5
DE
  8
0
  6
CONTINUOUS
 62
     7
 10
4.349397353099999
 20
2.373931387999999
 30
0.0
 11
4.412219054499999
 21
2.373931387999999
 31
0.0
  0
LINE
  5
DF
  8
0
  6
CONTINUOUS
 62
     7
 10
4.0347817493
 20
2.373931387999999
 30
0.0
 11
4.0977894242
 21
2.373931387999999
 31
0.0
  0
LINE
  5
E0
  8
0
  6
CONTINUOUS
 62
     7
 10
2.748726340699999
 20
1.591504500899999
 30
0.0
 11
2.748726340699999
 21
1.528084566199999
 31
0.0
  0
LINE
  5
E1
  8
0
  6
CONTINUOUS
 62
     7
 10
1.9662994536
 20
2.373931387999999
 30
0.0
 11
1.902879518899999
 21
2.373931387999999
 31
0.0
  0
LINE
  5
E2
  8
0
  6
CONTINUOUS
 62
     7
 10
1.650170931999999
 20
2.373931387999999
 30
0.0
 11
1.5871632572
 21
2.373931387999999
 31
0.0
  0
LINE
  5
E3
  8
0
  6
CONTINUOUS
 62
     7
 10
1.335555328299999
 20
2.373931387999999
 30
0.0
 11
1.2727336269
 21
2.373931387999999
 31
0.0
  0
LINE
  5
E4
  8
0
  6
CONTINUOUS
 62
     7
 10
1.0216682268
 20
2.373931387999999
 30
0.0
 11
0.9589461610999999
 21
2.373931387999999
 31
0.0
  0
LINE
  5
E5
  8
0
  6
CONTINUOUS
 62
     7
 10
0.7081881836
 20
2.373931387999999
 30
0.0
 11
0.6455256841
 21
2.373931387999999
 31
0.0
  0
LINE
  5
E6
  8
0
  6
CONTINUOUS
 62
     7
 10
2.748726340699999
 20
0.3333932309
 30
0.0
 11
2.748726340699999
 21
0.2707307314
 31
0.0
  0
LINE
  5
E7
  8
0
  6
CONTINUOUS
 62
     7
 10
2.748726340699999
 20
0.6468732742000001
 30
0.0
 11
2.748726340699999
 21
0.5841512084
 31
0.0
  0
LINE
  5
E8
  8
0
  6
CONTINUOUS
 62
     7
 10
2.748726340699999
 20
0.9607603757
 30
0.0
 11
2.748726340699999
 21
0.8979386742
 31
0.0
  0
LINE
  5
E9
  8
0
  6
CONTINUOUS
 62
     7
 10
2.748726340699999
 20
1.275375979399999
 30
0.0
 11
2.748726340699999
 21
1.2123683046
 31
0.0
  0
ENDSEC
  0
EOF
