  0
SECTION
  2
HEADER
  9
$ACADVER
  1
AC1012
  9
$DWGCODEPAGE
  3
ansi_1252
  9
$INSUNITS
  1

  9
$INSBASE
 10
0.0
 20
0.0
 30
0.0
  9
$EXTMIN
 10
-1000.0
 20
-1000.0
 30
0.0
  9
$EXTMAX
 10
1000.0
 20
1000.0
 30
0.0
  9
$LIMMIN
 10
0.0
 20
0.0
  9
$LIMMAX
 10
0.0
 20
0.0
  9
$ORTHOMODE
 70
     0
  9
$REGENMODE
 70
     1
  9
$FILLMODE
 70
     1
  9
$QTEXTMODE
 70
     0
  9
$MIRRTEXT
 70
     1
  9
$DRAGMODE
 70
     2
  9
$LTSCALE
 40
1.0
  9
$OSMODE
 70
    37
  9
$ATTMODE
 70
     1
  9
$TEXTSIZE
 40
0.1377952756
  9
$TRACEWID
 40
0.05
  9
$TEXTSTYLE
  7
STANDARD
  9
$CLAYER
  8
0
  9
$CELTYPE
  6
BYLAYER
  9
$CECOLOR
 62
   256
  9
$CELTSCALE
 40
1.0
  9
$DELOBJ
 70
     1
  9
$DISPSILH
 70
     0
  9
$DIMSCALE
 40
1.0
  9
$DIMASZ
 40
0.2362204724
  9
$DIMEXO
 40
0.0393700787
  9
$DIMDLI
 40
0.38
  9
$DIMRND
 40
0.0
  9
$DIMDLE
 40
0.0
  9
$DIMEXE
 40
0.0393700787
  9
$DIMTP
 40
0.0
  9
$DIMTM
 40
0.0
  9
$DIMTXT
 40
0.1377952756
  9
$DIMCEN
 40
0.09
  9
$DIMTSZ
 40
0.0
  9
$DIMTOL
 70
     0
  9
$DIMLIM
 70
     0
  9
$DIMTIH
 70
     1
  9
$DIMTOH
 70
     1
  9
$DIMSE1
 70
     0
  9
$DIMSE2
 70
     0
  9
$DIMTAD
 70
     0
  9
$DIMZIN
 70
     1
  9
$DIMBLK
  1

  9
$DIMASO
 70
     1
  9
$DIMSHO
 70
     1
  9
$DIMPOST
  1

  9
$DIMAPOST
  1

  9
$DIMALT
 70
     0
  9
$DIMALTD
 70
     2
  9
$DIMALTF
 40
25.4
  9
$DIMLFAC
 40
1.0
  9
$DIMTOFL
 70
     0
  9
$DIMTVP
 40
0.0
  9
$DIMTIX
 70
     0
  9
$DIMSOXD
 70
     0
  9
$DIMSAH
 70
     0
  9
$DIMBLK1
  1

  9
$DIMBLK2
  1

  9
$DIMSTYLE
  2
STANDARD
  9
$DIMCLRD
 70
     0
  9
$DIMCLRE
 70
     0
  9
$DIMCLRT
 70
     0
  9
$DIMTFAC
 40
1.0
  9
$DIMGAP
 40
0.06
  9
$DIMJUST
 70
     0
  9
$DIMSD1
 70
     0
  9
$DIMSD2
 70
     0
  9
$DIMTOLJ
 70
     1
  9
$DIMTZIN
 70
     1
  9
$DIMALTZ
 70
     0
  9
$DIMALTTZ
 70
     0
  9
$DIMFIT
 70
     3
  9
$DIMUPT
 70
     0
  9
$DIMUNIT
 70
     2
  9
$DIMDEC
 70
     4
  9
$DIMTDEC
 70
     4
  9
$DIMALTU
 70
     2
  9
$DIMALTTD
 70
     2
  9
$DIMTXSTY
  7
STANDARD
  9
$DIMAUNIT
 70
     0
  9
$LUNITS
 70
     2
  9
$LUPREC
 70
     4
  9
$SKETCHINC
 40
0.1
  9
$FILLETRAD
 40
0.5
  9
$AUNITS
 70
     0
  9
$AUPREC
 70
     0
  9
$MENU
  1
.
  9
$ELEVATION
 40
0.0
  9
$PELEVATION
 40
0.0
  9
$THICKNESS
 40
0.0
  9
$LIMCHECK
 70
     0
  9
$CHAMFERA
 40
0.5
  9
$CHAMFERB
 40
0.5
  9
$CHAMFERC
 40
1.0
  9
$CHAMFERD
 40
0.0
  9
$SKPOLY
 70
     0
  9
$TDCREATE
 40
2457059.4862175
  9
$TDUPDATE
 40
2457059.486217511
  9
$TDINDWG
 40
0.0000000116
  9
$TDUSRTIMER
 40
0.0000000116
  9
$USRTIMER
 70
     1
  9
$ANGBASE
 50
0.0
  9
$ANGDIR
 70
     0
  9
$PDMODE
 70
     0
  9
$PDSIZE
 40
-1.0
  9
$PLINEWID
 40
0.0
  9
$COORDS
 70
     1
  9
$SPLFRAME
 70
     0
  9
$SPLINETYPE
 70
     6
  9
$SPLINESEGS
 70
     8
  9
$ATTDIA
 70
     0
  9
$ATTREQ
 70
     1
  9
$HANDLING
 70
     1
  9
$HANDSEED
  5
48
  9
$SURFTAB1
 70
     6
  9
$SURFTAB2
 70
     6
  9
$SURFTYPE
 70
     6
  9
$SURFU
 70
     6
  9
$SURFV
 70
     6
  9
$UCSNAME
  2

  9
$UCSORG
 10
0.0
 20
0.0
 30
0.0
  9
$UCSXDIR
 10
1.0
 20
0.0
 30
0.0
  9
$UCSYDIR
 10
0.0
 20
1.0
 30
0.0
  9
$PUCSNAME
  2

  9
$PUCSORG
 10
0.0
 20
0.0
 30
0.0
  9
$PUCSXDIR
 10
1.0
 20
0.0
 30
0.0
  9
$PUCSYDIR
 10
0.0
 20
1.0
 30
0.0
  9
$USERI1
 70
     0
  9
$USERI2
 70
     0
  9
$USERI3
 70
     0
  9
$USERI4
 70
     0
  9
$USERI5
 70
     0
  9
$USERR1
 40
0.0
  9
$USERR2
 40
0.0
  9
$USERR3
 40
0.0
  9
$USERR4
 40
0.0
  9
$USERR5
 40
0.0
  9
$WORLDVIEW
 70
     1
  9
$SHADEDGE
 70
     3
  9
$SHADEDIF
 70
    70
  9
$TILEMODE
 70
     1
  9
$MAXACTVP
 70
    64
  9
$PINSBASE
 10
0.0
 20
0.0
 30
0.0
  9
$PLIMCHECK
 70
     0
  9
$PEXTMIN
 10
1.0000000000E+20
 20
1.0000000000E+20
 30
1.0000000000E+20
  9
$PEXTMAX
 10
-1.0000000000E+20
 20
-1.0000000000E+20
 30
-1.0000000000E+20
  9
$PLIMMIN
 10
0.0
 20
0.0
  9
$PLIMMAX
 10
12.0
 20
9.0
  9
$UNITMODE
 70
     0
  9
$VISRETAIN
 70
     1
  9
$PLINEGEN
 70
     0
  9
$PSLTSCALE
 70
     1
  9
$TREEDEPTH
 70
  3020
  9
$PICKSTYLE
 70
     1
  9
$CMLSTYLE
  2
STANDARD
  9
$CMLJUST
 70
     0
  9
$CMLSCALE
 40
1.0
  9
$SAVEIMAGES
 70
     1
  0
ENDSEC
  0
SECTION
  2
CLASSES
  0
CLASS
  1
ACDBDICTIONARYWDFLT
  2
AcDbDictionaryWithDefault
  3
ObjectDBX Classes
 90
    32768
280
     0
281
     0
  0
CLASS
  1
XRECORD
  2
AcDbXrecord
  3
AutoCAD 2000
 90
    32768
280
     0
281
     0
  0
CLASS
  1
LWPOLYLINE
  2
AcDbPolyline
  3
AutoCAD 2000
 90
    32768
280
     0
281
     1
  0
CLASS
  1
HATCH
  2
AcDbHatch
  3
AutoCAD 2000
 90
    32768
280
     0
281
     1
  0
CLASS
  1
ACDBPLACEHOLDER
  2
AcDbPlaceHolder
  3
ObjectDBX Classes
 90
        0
280
     0
281
     0
  0
CLASS
  1
LAYOUT
  2
AcDbLayout
  3
ObjectDBX Classes
 90
        0
280
     0
281
     0
  0
ENDSEC
  0
SECTION
  2
TABLES
  0
TABLE
  2
VPORT
  5
8
330
0
100
AcDbSymbolTable
 70
     1
  0
VPORT
  5
29
330
8
100
AcDbSymbolTableRecord
100
AcDbViewportTableRecord
  2
*ACTIVE
 70
     0
 10
0.0
 20
0.0
 11
1.0
 21
1.0
 12
8.2677165354
 22
5.8464566929
 13
0.0
 23
0.0
 14
0.5
 24
0.5
 15
0.5
 25
0.5
 16
0.0
 26
0.0
 36
1.0
 17
0.0
 27
0.0
 37
0.0
 40
11.6929133858
 41
1.4141414141
 42
50.0
 43
0.0
 44
0.0
 50
0.0
 51
0.0
 71
     0
 72
  2000
 73
     1
 74
     3
 75
     0
 76
     0
 77
     0
 78
     0
  0
ENDTAB
  0
TABLE
  2
LTYPE
  5
5
330
0
100
AcDbSymbolTable
 70
     6
  0
LTYPE
  5
14
330
5
100
AcDbSymbolTableRecord
100
AcDbLinetypeTableRecord
  2
BYBLOCK
 70
     0
  3

 72
    65
 73
     0
 40
0.0
  0
LTYPE
  5
15
330
5
100
AcDbSymbolTableRecord
100
AcDbLinetypeTableRecord
  2
BYLAYER
 70
     0
  3

 72
    65
 73
     0
 40
0.0
  0
LTYPE
  5
16
330
5
100
AcDbSymbolTableRecord
100
AcDbLinetypeTableRecord
  2
CONTINUOUS
 70
     0
  3
Solid line
 72
    65
 73
     0
 40
0.0
  0
LTYPE
  5
2A
330
5
100
AcDbSymbolTableRecord
100
AcDbLinetypeTableRecord
  2
HIDDEN
 70
     0
  3
Hidden __ __ __ __ __ __ __ __ __ __ __ __ __ __
 72
    65
 73
     2
 40
0.075
 49
0.05
 74
     0
 49
-0.025
 74
     0
  0
LTYPE
  5
2B
330
5
100
AcDbSymbolTableRecord
100
AcDbLinetypeTableRecord
  2
PHANTOM
 70
     0
  3
Phantom ______  __  __  ______  __  __  ______
 72
    65
 73
     6
 40
0.5
 49
0.25
 74
     0
 49
-0.05
 74
     0
 49
0.05
 74
     0
 49
-0.05
 74
     0
 49
0.05
 74
     0
 49
-0.05
 74
     0
  0
LTYPE
  5
2C
330
5
100
AcDbSymbolTableRecord
100
AcDbLinetypeTableRecord
  2
CENTER
 70
     0
  3
Center ____ _ ____ _ ____ _ ____ _ ____ _ ____
 72
    65
 73
     4
 40
0.4
 49
0.25
 74
     0
 49
-0.05
 74
     0
 49
0.05
 74
     0
 49
-0.05
 74
     0
  0
LTYPE
  5
2D
330
5
100
AcDbSymbolTableRecord
100
AcDbLinetypeTableRecord
  2
CENTERX2
 70
     0
  3
Center (2x) ________  __  ________  __  _____
 72
    65
 73
     4
 40
0.8
 49
0.5
 74
     0
 49
-0.1
 74
     0
 49
0.1
 74
     0
 49
-0.1
 74
     0
  0
LTYPE
  5
2E
330
5
100
AcDbSymbolTableRecord
100
AcDbLinetypeTableRecord
  2
DOT2
 70
     0
  3
Dot (.5x) ........................................
 72
    65
 73
     2
 40
0.025
 49
0.0
 74
     0
 49
-0.025
 74
     0
  0
ENDTAB
  0
TABLE
  2
LAYER
  5
2
330
0
100
AcDbSymbolTable
 70
     2
  0
LAYER
  5
10
330
2
100
AcDbSymbolTableRecord
100
AcDbLayerTableRecord
  2
0
 70
     0
 62
     7
  6
CONTINUOUS
  0
LAYER
  5
2F
330
2
100
AcDbSymbolTableRecord
100
AcDbLayerTableRecord
  2
GRAIN DIRECTION
 70
     0
 62
   2
  6
CONTINUOUS
  0
ENDTAB
  0
TABLE
  2
STYLE
  5
3
330
0
100
AcDbSymbolTable
 70
     1
  0
STYLE
  5
11
330
3
100
AcDbSymbolTableRecord
100
AcDbTextStyleTableRecord
  2
STANDARD
 70
     0
 40
0.0
 41
1.0
 50
0.0
 71
     0
 42
0.2
  3
txt
  4

  0
ENDTAB
  0
TABLE
  2
VIEW
  5
6
330
0
100
AcDbSymbolTable
 70
     0
  0
ENDTAB
  0
TABLE
  2
UCS
  5
7
330
0
100
AcDbSymbolTable
 70
     0
  0
ENDTAB
  0
TABLE
  2
APPID
  5
9
330
0
100
AcDbSymbolTable
 70
     1
  0
APPID
  5
12
330
9
100
AcDbSymbolTableRecord
100
AcDbRegAppTableRecord
  2
ACAD
 70
     0
  0
ENDTAB
  0
TABLE
  2
DIMSTYLE
  5
A
330
0
100
AcDbSymbolTable
 70
     1
  0
DIMSTYLE
105
27
330
A
100
AcDbSymbolTableRecord
100
AcDbDimStyleTableRecord
  2
STANDARD
 70
     0
  3

  4

  5

  6

  7

 40
1.0
 41
0.18
 42
0.0625
 43
0.38
 44
0.18
 45
0.0
 46
0.0
 47
0.0
 48
0.0
140
0.18
141
0.09
142
0.0
143
25.4
144
1.0
145
0.0
146
1.0
147
0.09
 71
     0
 72
     0
 73
     1
 74
     1
 75
     0
 76
     0
 77
     0
 78
     0
170
     0
171
     2
172
     0
173
     0
174
     0
175
     0
176
     0
177
     0
178
     0
270
     2
271
     4
272
     4
273
     2
274
     2
340
11
275
     0
280
     0
281
     0
282
     0
283
     1
284
     0
285
     0
286
     0
287
     3
288
     0
  0
ENDTAB
  0
TABLE
  2
BLOCK_RECORD
  5
1
330
0
100
AcDbSymbolTable
 70
     1
  0
BLOCK_RECORD
  5
1F
330
1
100
AcDbSymbolTableRecord
100
AcDbBlockTableRecord
  2
*MODEL_SPACE
  0
BLOCK_RECORD
  5
1B
330
1
100
AcDbSymbolTableRecord
100
AcDbBlockTableRecord
  2
*PAPER_SPACE
  0
ENDTAB
  0
ENDSEC
  0
SECTION
  2
BLOCKS
  0
BLOCK
  5
20
330
1F
100
AcDbEntity
  8
0
100
AcDbBlockBegin
  2
*MODEL_SPACE
 70
     0
 71
     0
 10
0.0
 20
0.0
 30
0.0
  3
*MODEL_SPACE
  1

  0
ENDBLK
  5
21
330
1F
100
AcDbEntity
  8
0
100
AcDbBlockEnd
  0
BLOCK
  5
1C
330
1B
100
AcDbEntity
 67
     1
  8
0
100
AcDbBlockBegin
  2
*PAPER_SPACE
 70
     0
 71
     0
 10
0.0
 20
0.0
 30
0.0
  3
*PAPER_SPACE
  1

  0
ENDBLK
  5
1D
330
1B
100
AcDbEntity
 67
     1
  8
0
100
AcDbBlockEnd
  0
ENDSEC
  0
SECTION
  2
ENTITIES
  0
LINE
  5
d2a0e4fc
330
1F
  8
Layer
100
AcDbEntity
  6
CONTINUOUS
100
AcDbLine
 10
-9.4240372455
 20
-2.6356194814
 30
0.0
 11
-8.2428061404
 21
-3.4523256689
 31
0.0
  0
LINE
  5
5a77a321
330
1F
  8
Layer
100
AcDbEntity
  6
CONTINUOUS
100
AcDbLine
 10
-8.2428061404
 20
-3.4523256689
 30
0.0
 11
-6.55519557
 21
-2.3272399702
 31
0.0
  0
ARC
  5
03104de9
330
1F
  8
Layer
100
AcDbEntity
  6
CONTINUOUS
100
AcDbCircle
 10
-4.510734212970679
 20
-0.8952309296654497
 30
0.0
 40
2.496091371035695
100
AcDbArc
 50
-144.99131703289984
 51
-130.02247307640027
  0
LINE
  5
daa0c2e6
330
1F
  8
Layer
100
AcDbEntity
  6
CONTINUOUS
100
AcDbLine
 10
-6.1159406835269765
 20
-2.806718392204258
 30
0.0
 11
-7.3304255250269765
 21
-3.822920147304258
 31
0.0
  0
LINE
  5
25cef48d
330
1F
  8
Layer
100
AcDbEntity
  6
CONTINUOUS
100
AcDbLine
 10
-7.3304255250269765
 20
-3.822920147304258
 30
0.0
 11
-6.372446646126977
 21
-4.190536065604258
 31
0.0
  0
LINE
  5
8d6d1737
330
1F
  8
Layer
100
AcDbEntity
  6
CONTINUOUS
100
AcDbLine
 10
-6.372446646126977
 20
-4.190536065604258
 30
0.0
 11
-5.749558784826976
 21
-3.062207120704258
 31
0.0
  0
ARC
  5
3769025a
330
1F
  8
Layer
100
AcDbEntity
  6
CONTINUOUS
100
AcDbCircle
 10
-4.51073421294431
 20
-0.8952309296347414
 30
0.0
 40
2.4960913710364094
100
AcDbArc
 50
-119.75589178270005
 51
-114.55282304849972
  0
LINE
  5
8236d7e6
330
1F
  8
Layer
100
AcDbEntity
  6
CONTINUOUS
100
AcDbLine
 10
-5.547940033715073
 20
-3.165622133353094
 30
0.0
 11
-5.331048106015073
 21
-2.8072274036530938
 31
0.0
  0
ARC
  5
8398145c
330
1F
  8
Layer
100
AcDbEntity
  6
CONTINUOUS
100
AcDbCircle
 10
-4.544379100208653
 20
-0.8516684527040548
 30
0.0
 40
2.107856478827097
100
AcDbArc
 50
131.5674615068
 51
-111.91360260170006
  0
ARC
  5
5835da5f
330
1F
  8
Layer
100
AcDbEntity
  6
CONTINUOUS
100
AcDbCircle
 10
-5.51918236752933
 20
-0.6128585899483237
 30
0.0
 40
1.4037269815834879
100
AcDbArc
 50
107.57078719559999
 51
137.60712397230003
  0
LINE
  5
4ee2130a
330
1F
  8
Layer
100
AcDbEntity
  6
CONTINUOUS
100
AcDbLine
 10
-6.555889735135208
 20
0.33354897171693443
 30
0.0
 11
-11.09651917113521
 21
1.2851315747169365
 31
0.0
  0
LINE
  5
9e823046
330
1F
  8
Layer
100
AcDbEntity
  6
CONTINUOUS
100
AcDbLine
 10
-11.09651917113521
 20
1.2851315747169365
 30
0.0
 11
-11.09651917113521
 21
0.05198054041693467
 31
0.0
  0
LINE
  5
fcaf28ed
330
1F
  8
Layer
100
AcDbEntity
  6
CONTINUOUS
100
AcDbLine
 10
-11.09651917113521
 20
0.05198054041693467
 30
0.0
 11
-6.915742521135209
 21
-0.2270938403830649
 31
0.0
  0
ARC
  5
f8be1c91
330
1F
  8
Layer
100
AcDbEntity
  6
CONTINUOUS
100
AcDbCircle
 10
-4.510734212913687
 20
-0.8952309295673717
 30
0.0
 40
2.4960913710355688
100
AcDbArc
 50
164.47413678369986
 51
177.01918173400023
  0
LINE
  5
607d8079
330
1F
  8
Layer
100
AcDbEntity
  6
CONTINUOUS
100
AcDbLine
 10
-7.003448372457078
 20
-0.7654301153553309
 30
0.0
 11
-10.822554523057079
 21
-0.6984451703553307
 31
0.0
  0
LINE
  5
276d4059
330
1F
  8
Layer
100
AcDbEntity
  6
CONTINUOUS
100
AcDbLine
 10
-10.822554523057079
 20
-0.6984451703553307
 30
0.0
 11
-9.967709850557078
 21
-2.100807860255331
 31
0.0
  0
LINE
  5
53b0ee57
330
1F
  8
Layer
100
AcDbEntity
  6
CONTINUOUS
100
AcDbLine
 10
-9.967709850557078
 20
-2.100807860255331
 30
0.0
 11
-6.983685252357078
 21
-1.2343257383553308
 31
0.0
  0
ARC
  5
500f43bf
330
1F
  8
Layer
100
AcDbEntity
  6
CONTINUOUS
100
AcDbCircle
 10
-4.510734212960994
 20
-0.8952309296254364
 30
0.0
 40
2.496091371035471
100
AcDbArc
 50
-172.1922074268003
 51
-157.12809815639977
  0
LINE
  5
95942495
330
1F
  8
Layer
100
AcDbEntity
  6
CONTINUOUS
100
AcDbLine
 10
-6.81057320368576
 20
-1.8653921272105722
 30
0.0
 11
-9.4240372455
 21
-2.6356194814
 31
0.0
  0
LINE
  5
cccb1e42
330
1F
  8
Layer
100
AcDbEntity
  6
CONTINUOUS
100
AcDbLine
 10
-4.5986965021
 20
-1.737542576
 30
0.0
 11
-5.3846881584
 21
-0.38080473420000005
 31
0.0
  0
LINE
  5
99125ace
330
1F
  8
Layer
100
AcDbEntity
  6
CONTINUOUS
100
AcDbLine
 10
-5.3846881584
 20
-0.38080473420000005
 30
0.0
 11
-6.1706798146
 21
-1.737542576
 31
0.0
  0
LINE
  5
d58522d6
330
1F
  8
Layer
100
AcDbEntity
  6
CONTINUOUS
100
AcDbLine
 10
-6.1706798146
 20
-1.737542576
 30
0.0
 11
-4.5986965021
 21
-1.737542576
 31
0.0
  0
LINE
  5
d5b4ab50
330
1F
  8
Layer
100
AcDbEntity
  6
CONTINUOUS
100
AcDbLine
 10
-4.1739655031
 20
-3.5287568875
 30
0.0
 11
-4.5472634981
 21
-2.3272399702
 31
0.0
  0
LINE
  5
f8bc7823
330
1F
  8
Layer
100
AcDbEntity
  6
CONTINUOUS
100
AcDbLine
 10
-4.5472634981
 20
-2.3272399702
 30
0.0
 11
-4.9205614931
 21
-3.5287568875
 31
0.0
  0
LINE
  5
6da2785d
330
1F
  8
Layer
100
AcDbEntity
  6
CONTINUOUS
100
AcDbLine
 10
-4.9205614931
 20
-3.5287568875
 30
0.0
 11
-4.7153181865
 21
-4.0885113599
 31
0.0
  0
LINE
  5
83ad7a7e
330
1F
  8
Layer
100
AcDbEntity
  6
CONTINUOUS
100
AcDbLine
 10
-4.7153181865
 20
-4.0885113599
 30
0.0
 11
-4.7153181865
 21
-4.4216672712
 31
0.0
  0
LINE
  5
cc00ef60
330
1F
  8
Layer
100
AcDbEntity
  6
CONTINUOUS
100
AcDbLine
 10
-4.7153181865
 20
-4.4216672712
 30
0.0
 11
-5.0050778096
 21
-4.7084018213
 31
0.0
  0
LINE
  5
b6516f26
330
1F
  8
Layer
100
AcDbEntity
  6
CONTINUOUS
100
AcDbLine
 10
-5.0050778096
 20
-4.7084018213
 30
0.0
 11
-4.5473918448
 21
-6.3081326201
 31
0.0
  0
LINE
  5
980b1517
330
1F
  8
Layer
100
AcDbEntity
  6
CONTINUOUS
100
AcDbLine
 10
-4.5473918448
 20
-6.3081326201
 30
0.0
 11
-4.0897058801
 21
-4.7084018213
 31
0.0
  0
LINE
  5
7d6f5f3c
330
1F
  8
Layer
100
AcDbEntity
  6
CONTINUOUS
100
AcDbLine
 10
-4.0897058801
 20
-4.7084018213
 30
0.0
 11
-4.3734469387
 21
-4.4216672712
 31
0.0
  0
LINE
  5
f7a62b33
330
1F
  8
Layer
100
AcDbEntity
  6
CONTINUOUS
100
AcDbLine
 10
-4.3734469387
 20
-4.4216672712
 30
0.0
 11
-4.3794655031
 21
-4.0885113599
 31
0.0
  0
LINE
  5
5d7d27a8
330
1F
  8
Layer
100
AcDbEntity
  6
CONTINUOUS
100
AcDbLine
 10
-4.3794655031
 20
-4.0885113599
 30
0.0
 11
-4.1739655031
 21
-3.5287568875
 31
0.0
  0
LINE
  5
791434a1
330
1F
  8
Layer
100
AcDbEntity
  6
CONTINUOUS
100
AcDbLine
 10
-3.7740477266
 20
-0.270413787
 30
0.0
 11
-4.5473918448
 21
1.0644925337
 31
0.0
  0
LINE
  5
03e7c0a0
330
1F
  8
Layer
100
AcDbEntity
  6
CONTINUOUS
100
AcDbLine
 10
-4.5473918448
 20
1.0644925337
 30
0.0
 11
-5.3207359631
 21
-0.270413787
 31
0.0
  0
LINE
  5
cd6b7bb7
330
1F
  8
Layer
100
AcDbEntity
  6
CONTINUOUS
100
AcDbLine
 10
-5.3207359631
 20
-0.270413787
 30
0.0
 11
-3.7740477266
 21
-0.270413787
 31
0.0
  0
LINE
  5
68fdd6c1
330
1F
  8
Layer
100
AcDbEntity
  6
CONTINUOUS
100
AcDbLine
 10
-3.0360480862
 20
-4.8291527074
 30
0.0
 11
-3.1497013289
 21
-4.0005839057
 31
0.0
  0
ARC
  5
0da936c7
330
1F
  8
Layer
100
AcDbEntity
  6
CONTINUOUS
100
AcDbCircle
 10
-3.3828333516151328
 20
-4.149603342133249
 30
0.0
 40
0.2766899572628761
100
AcDbArc
 50
32.58696634909998
 51
172.65642955250001
  0
ARC
  5
f4b8f09f
330
1F
  8
Layer
100
AcDbEntity
  6
CONTINUOUS
100
AcDbCircle
 10
-0.43097243020879183
 20
-2.970919010782237
 30
0.0
 40
3.422874177179352
100
AcDbArc
 50
-160.48687197529972
 51
-148.12596292950045
  0
ARC
  5
196aaec5
330
1F
  8
Layer
100
AcDbEntity
  6
CONTINUOUS
100
AcDbCircle
 10
-3.5287875133448283
 20
-4.897192024460944
 30
0.0
 40
0.22500000000000536
100
AcDbArc
 50
-29.169034604900084
 51
31.874037070500123
  0
ARC
  5
1892a1d7
330
1F
  8
Layer
100
AcDbEntity
  6
CONTINUOUS
100
AcDbCircle
 10
-2.513047284247909
 20
-5.464149848343109
 30
0.0
 40
0.9382580913395996
100
AcDbArc
 50
150.83096539510015
 51
170.31024396049986
  0
ARC
  5
7a95db03
330
1F
  8
Layer
100
AcDbEntity
  6
CONTINUOUS
100
AcDbCircle
 10
-2.6421101401120164
 20
-4.711864558011699
 30
0.0
 40
0.9932681956419555
100
AcDbArc
 50
-143.24515286230013
 51
-106.60758042169982
  0
ARC
  5
d3eb6698
330
1F
  8
Layer
100
AcDbEntity
  6
CONTINUOUS
100
AcDbCircle
 10
-3.7312142512360316
 20
-5.65008251406515
 30
0.0
 40
0.8053281195049016
100
AcDbArc
 50
-0.9687561755999636
 51
30.321223073599956
  0
ARC
  5
72260922
330
1F
  8
Layer
100
AcDbEntity
  6
CONTINUOUS
100
AcDbCircle
 10
-3.1182391295980363
 20
-10.164920541088721
 30
0.0
 40
4.922092112819553
100
AcDbArc
 50
79.65372888700026
 51
89.0432079143998
  0
ARC
  5
7d7222db
330
1F
  8
Layer
100
AcDbEntity
  6
CONTINUOUS
100
AcDbCircle
 10
-2.2746567652604814
 20
-5.5442016456256535
 30
0.0
 40
0.22500000000009293
100
AcDbArc
 50
-11.94714534720001
 51
79.65372888700017
  0
ARC
  5
936b71cf
330
1F
  8
Layer
100
AcDbEntity
  6
CONTINUOUS
100
AcDbCircle
 10
-9.17972219495131
 20
-4.083141005662964
 30
0.0
 40
7.2829477741026745
100
AcDbArc
 50
-20.714579423800256
 51
-11.947145347299864
  0
ARC
  5
7a1ea800
330
1F
  8
Layer
100
AcDbEntity
  6
CONTINUOUS
100
AcDbCircle
 10
-5.350957746293291
 20
-3.77660984859178
 30
0.0
 40
4.14848178038087
100
AcDbArc
 50
-44.01585899260003
 51
-22.57143920409999
  0
ARC
  5
be4d7135
330
1F
  8
Layer
100
AcDbEntity
  6
CONTINUOUS
100
AcDbCircle
 10
-1.9325841424490628
 20
-5.239477007189109
 30
0.0
 40
0.4321883507950512
100
AcDbArc
 50
-17.43108130259994
 51
71.69732691379997
  0
LINE
  5
98bfd5fe
330
1F
  8
Layer
100
AcDbEntity
  6
CONTINUOUS
100
AcDbLine
 10
-1.7968611172610827
 20
-4.829152707400796
 30
0.0
 11
-3.0360480862
 21
-4.8291527074
 31
0.0
  0
LINE
  5
9b018f06
330
1F
  8
Layer
100
AcDbEntity
  6
CONTINUOUS
100
AcDbLine
 10
-3.7077601363
 20
-0.3848359713
 30
0.0
 11
-4.490411832
 21
-1.7357835011
 31
0.0
  0
LINE
  5
e9935c14
330
1F
  8
Layer
100
AcDbEntity
  6
CONTINUOUS
100
AcDbLine
 10
-4.490411832
 20
-1.7357835011
 30
0.0
 11
-2.9241038751
 21
-1.737542576
 31
0.0
  0
LINE
  5
963c2f1d
330
1F
  8
Layer
100
AcDbEntity
  6
CONTINUOUS
100
AcDbLine
 10
-2.9241038751
 20
-1.737542576
 30
0.0
 11
-3.7077601363
 21
-0.3848359713
 31
0.0
  0
LINE
  5
acfd9a26
330
1F
  8
Layer
100
AcDbEntity
  6
CONTINUOUS
100
AcDbLine
 10
2.0017354815
 20
1.2291561274
 30
0.0
 11
-2.5882511917000004
 21
0.33354897159999997
 31
0.0
  0
ARC
  5
9919044b
330
1F
  8
Layer
100
AcDbEntity
  6
CONTINUOUS
100
AcDbCircle
 10
-3.6501600773292653
 20
-0.584909257510627
 30
0.0
 40
1.4039999999997923
100
AcDbArc
 50
40.85693637740002
 51
68.94761645729997
  0
ARC
  5
d1c4105d
330
1F
  8
Layer
100
AcDbEntity
  6
CONTINUOUS
100
AcDbCircle
 10
-4.544379100356639
 20
-0.8516684528213085
 30
0.0
 40
2.1078564788270984
100
AcDbArc
 50
-67.64264245089998
 51
48.43253849319997
  0
LINE
  5
bf078871
330
1F
  8
Layer
100
AcDbEntity
  6
CONTINUOUS
100
AcDbLine
 10
-3.742588065384929
 20
-2.801076073503132
 30
0.0
 11
-3.500811846784929
 21
-3.1778892367031317
 31
0.0
  0
ARC
  5
34244fbe
330
1F
  8
Layer
100
AcDbEntity
  6
CONTINUOUS
100
AcDbCircle
 10
-4.510734213063928
 20
-0.8952309296703227
 30
0.0
 40
2.4960913710392223
100
AcDbArc
 50
-66.1338411657998
 51
-60.13250103890019
  0
LINE
  5
31db13f2
330
1F
  8
Layer
100
AcDbEntity
  6
CONTINUOUS
100
AcDbLine
 10
-3.2676909136118004
 20
-3.0597898889651796
 30
0.0
 11
-2.7561775335118
 21
-4.08851135986518
 31
0.0
  0
LINE
  5
3fe4250c
330
1F
  8
Layer
100
AcDbEntity
  6
CONTINUOUS
100
AcDbLine
 10
-2.7561775335118
 20
-4.08851135986518
 30
0.0
 11
-1.8605703777118006
 21
-3.8086341236651804
 31
0.0
  0
LINE
  5
ba98c28e
330
1F
  8
Layer
100
AcDbEntity
  6
CONTINUOUS
100
AcDbLine
 10
-1.8605703777118006
 20
-3.8086341236651804
 30
0.0
 11
-2.912229017711801
 21
-2.8123259384651793
 31
0.0
  0
ARC
  5
1ccdcd36
330
1F
  8
Layer
100
AcDbEntity
  6
CONTINUOUS
100
AcDbCircle
 10
-4.510734213141349
 20
-0.8952309296711989
 30
0.0
 40
2.4960913710355337
100
AcDbArc
 50
-50.1780995339001
 51
-35.66631613860001
  0
LINE
  5
51269b83
330
1F
  8
Layer
100
AcDbEntity
  6
CONTINUOUS
100
AcDbLine
 10
-2.4828435689840367
 20
-2.3506111782307597
 30
0.0
 11
-0.8701599338840365
 21
-3.41706837423076
 31
0.0
  0
LINE
  5
ec8a4244
330
1F
  8
Layer
100
AcDbEntity
  6
CONTINUOUS
100
AcDbLine
 10
-0.8701599338840365
 20
-3.41706837423076
 30
0.0
 11
0.2598060250159637
 21
-2.63039099243076
 31
0.0
  0
LINE
  5
57bf82a3
330
1F
  8
Layer
100
AcDbEntity
  6
CONTINUOUS
100
AcDbLine
 10
0.2598060250159637
 20
-2.63039099243076
 30
0.0
 11
-2.2031136532840367
 21
-1.8467347311307596
 31
0.0
  0
ARC
  5
04cdee76
330
1F
  8
Layer
100
AcDbEntity
  6
CONTINUOUS
100
AcDbCircle
 10
-4.510734213180419
 20
-0.8952309297189442
 30
0.0
 40
2.4960913710354498
100
AcDbArc
 50
-22.407878577500018
 51
-7.7662014007000755
  0
LINE
  5
f93b2f19
330
1F
  8
Layer
100
AcDbEntity
  6
CONTINUOUS
100
AcDbLine
 10
-2.0375376754432057
 20
-1.2325305269352604
 30
0.0
 11
0.8172101335567952
 21
-2.016186788235261
 31
0.0
  0
LINE
  5
537f6b85
330
1F
  8
Layer
100
AcDbEntity
  6
CONTINUOUS
100
AcDbLine
 10
0.8172101335567952
 20
-2.016186788235261
 30
0.0
 11
1.656841842056795
 21
-0.7287515018352604
 31
0.0
  0
LINE
  5
15eb1031
330
1F
  8
Layer
100
AcDbEntity
  6
CONTINUOUS
100
AcDbLine
 10
1.656841842056795
 20
-0.7287515018352604
 30
0.0
 11
-2.020200789843206
 21
-0.7287515018352604
 31
0.0
  0
ARC
  5
c1e8de2b
330
1F
  8
Layer
100
AcDbEntity
  6
CONTINUOUS
100
AcDbCircle
 10
-4.510734213157976
 20
-0.8952309297266128
 30
0.0
 40
2.4960913710357278
100
AcDbArc
 50
3.824240864700147
 51
15.717957371699864
  0
LINE
  5
20fcc8ff
330
1F
  8
Layer
100
AcDbEntity
  6
CONTINUOUS
100
AcDbLine
 10
-2.1079794642342993
 20
-0.2190343983219174
 30
0.0
 11
1.9457600341657022
 21
0.10964718267808182
 31
0.0
  0
LINE
  5
146eb55e
330
1F
  8
Layer
100
AcDbEntity
  6
CONTINUOUS
100
AcDbLine
 10
1.9457600341657022
 20
0.10964718267808182
 30
0.0
 11
2.0017354815
 21
1.2291561274
 31
0.0
  0
LINE
  5
e1d33b5b
330
1F
  8
Layer
100
AcDbEntity
  6
CONTINUOUS
100
AcDbLine
 10
-6.0058938399
 20
-4.8291527074
 30
0.0
 11
-7.2450808089
 21
-4.8291527074
 31
0.0
  0
ARC
  5
627b4dda
330
1F
  8
Layer
100
AcDbEntity
  6
CONTINUOUS
100
AcDbCircle
 10
-7.1093577837120225
 20
-5.239477007188308
 30
0.0
 40
0.4321883507950458
100
AcDbArc
 50
108.3026730861999
 51
-162.56891869739994
  0
ARC
  5
57750755
330
1F
  8
Layer
100
AcDbEntity
  6
CONTINUOUS
100
AcDbCircle
 10
-3.6909841798628107
 20
-3.7766098485889166
 30
0.0
 40
4.148481780386257
100
AcDbArc
 50
-157.4285607959001
 51
-135.9841410073999
  0
ARC
  5
e79e190f
330
1F
  8
Layer
100
AcDbEntity
  6
CONTINUOUS
100
AcDbCircle
 10
0.4124908128621829
 20
-4.980537587987019
 30
0.0
 40
7.28294777410533
100
AcDbArc
 50
-177.90269761210004
 51
-166.6738428974999
  0
ARC
  5
0d6975b4
330
1F
  8
Layer
100
AcDbEntity
  6
CONTINUOUS
100
AcDbCircle
 10
-6.790628486325097
 20
-5.24432438808817
 30
0.0
 40
0.07499999999986966
100
AcDbArc
 50
100.34627111280089
 51
-177.90269761210087
  0
ARC
  5
0c302e03
330
1F
  8
Layer
100
AcDbEntity
  6
CONTINUOUS
100
AcDbCircle
 10
-5.920106613113456
 20
-10.01260433147012
 30
0.0
 40
4.922092112823648
100
AcDbArc
 50
90.95679208559969
 51
100.34627111300031
  0
ARC
  5
2162c2c4
330
1F
  8
Layer
100
AcDbEntity
  6
CONTINUOUS
100
AcDbCircle
 10
-5.307131491473727
 20
-5.497766304443476
 30
0.0
 40
0.8053281195069337
100
AcDbArc
 50
149.67877692640027
 51
-179.03124382460032
  0
ARC
  5
859b0d73
330
1F
  8
Layer
100
AcDbEntity
  6
CONTINUOUS
100
AcDbCircle
 10
-6.396235602599573
 20
-4.559548348388092
 30
0.0
 40
0.993268195641073
100
AcDbArc
 50
-73.3924195783
 51
-36.754847137700075
  0
ARC
  5
bdc2f2c7
330
1F
  8
Layer
100
AcDbEntity
  6
CONTINUOUS
100
AcDbCircle
 10
-6.52529845846249
 20
-5.311833638718651
 30
0.0
 40
0.9382580913376729
100
AcDbArc
 50
9.689756039500086
 51
29.169034605000075
  0
ARC
  5
de4dcf1f
330
1F
  8
Layer
100
AcDbEntity
  6
CONTINUOUS
100
AcDbCircle
 10
-5.640536071257861
 20
-4.81798398766149
 30
0.0
 40
0.07500000000002391
100
AcDbArc
 50
148.1259629294996
 51
-150.83096539509958
  0
ARC
  5
6df2896a
330
1F
  8
Layer
100
AcDbEntity
  6
CONTINUOUS
100
AcDbCircle
 10
-8.610969495953546
 20
-2.9709190107784464
 30
0.0
 40
3.422874177179208
100
AcDbArc
 50
-31.874037070499984
 51
-19.513128024700112
  0
ARC
  5
64e39639
330
1F
  8
Layer
100
AcDbEntity
  6
CONTINUOUS
100
AcDbCircle
 10
-5.659108574547336
 20
-4.149603342129399
 30
0.0
 40
0.27668995726287493
100
AcDbArc
 50
7.34357044749983
 51
147.41303365090002
  0
LINE
  5
c767afbd
330
1F
  8
Layer
100
AcDbEntity
  6
CONTINUOUS
100
AcDbLine
 10
-5.892240597262467
 20
-4.000583905696152
 30
0.0
 11
-6.0058938399
 21
-4.8291527074
 31
0.0
  0
ENDSEC
  0
SECTION
  2
OBJECTS
  0
DICTIONARY
  5
C
330
0
100
AcDbDictionary
  3
ACAD_GROUP
350
D
  3
ACAD_LAYOUT
350
1A
  3
ACAD_MLINESTYLE
350
17
  3
ACAD_PLOTSETTINGS
350
19
1001
ACAD
1000
TREAT_AS_HARD
1070
     0
  0
DICTIONARY
  5
D
102
{ACAD_REACTORS
330
C
102
}
330
C
100
AcDbDictionary
1001
ACAD
1000
TREAT_AS_HARD
1070
     0
  0
DICTIONARY
  5
1A
102
{ACAD_REACTORS
330
C
102
}
330
C
100
AcDbDictionary
1001
ACAD
1000
TREAT_AS_HARD
1070
     0
  0
DICTIONARY
  5
17
102
{ACAD_REACTORS
330
C
102
}
330
C
100
AcDbDictionary
  3
STANDARD
350
18
1001
ACAD
1000
TREAT_AS_HARD
1070
     0
  0
DICTIONARY
  5
19
102
{ACAD_REACTORS
330
C
102
}
330
C
100
AcDbDictionary
1001
ACAD
1000
TREAT_AS_HARD
1070
     0
  0
MLINESTYLE
  5
18
102
{ACAD_REACTORS
330
17
102
}
330
17
100
AcDbMlineStyle
  2
Standard
 70
     0
  3

 62
   256
 51
90.0
 52
90.0
 71
     2
 49
0.5
 62
   256
  6
BYLAYER
 49
-0.5
 62
   256
  6
BYLAYER
  0
ENDSEC
  0
EOF
