  0
SECTION
  2
HEADER
  9
$ACADVER
  1
AC1012
  9
$DWGCODEPAGE
  3
ansi_1252
  9
$INSUNITS
  4

  9
$INSBASE
 10
0.0
 20
0.0
 30
0.0
  9
$EXTMIN
 10
-1000.0
 20
-1000.0
 30
0.0
  9
$EXTMAX
 10
1000.0
 20
1000.0
 30
0.0
  9
$LIMMIN
 10
0.0
 20
0.0
  9
$LIMMAX
 10
0.0
 20
0.0
  9
$ORTHOMODE
 70
     0
  9
$REGENMODE
 70
     1
  9
$FILLMODE
 70
     1
  9
$QTEXTMODE
 70
     0
  9
$MIRRTEXT
 70
     1
  9
$DRAGMODE
 70
     2
  9
$LTSCALE
 40
1.0
  9
$OSMODE
 70
    37
  9
$ATTMODE
 70
     1
  9
$TEXTSIZE
 40
0.1377952756
  9
$TRACEWID
 40
0.05
  9
$TEXTSTYLE
  7
STANDARD
  9
$CLAYER
  8
0
  9
$CELTYPE
  6
BYLAYER
  9
$CECOLOR
 62
   256
  9
$CELTSCALE
 40
1.0
  9
$DELOBJ
 70
     1
  9
$DISPSILH
 70
     0
  9
$DIMSCALE
 40
1.0
  9
$DIMASZ
 40
0.2362204724
  9
$DIMEXO
 40
0.0393700787
  9
$DIMDLI
 40
0.38
  9
$DIMRND
 40
0.0
  9
$DIMDLE
 40
0.0
  9
$DIMEXE
 40
0.0393700787
  9
$DIMTP
 40
0.0
  9
$DIMTM
 40
0.0
  9
$DIMTXT
 40
0.1377952756
  9
$DIMCEN
 40
0.09
  9
$DIMTSZ
 40
0.0
  9
$DIMTOL
 70
     0
  9
$DIMLIM
 70
     0
  9
$DIMTIH
 70
     1
  9
$DIMTOH
 70
     1
  9
$DIMSE1
 70
     0
  9
$DIMSE2
 70
     0
  9
$DIMTAD
 70
     0
  9
$DIMZIN
 70
     1
  9
$DIMBLK
  1

  9
$DIMASO
 70
     1
  9
$DIMSHO
 70
     1
  9
$DIMPOST
  1

  9
$DIMAPOST
  1

  9
$DIMALT
 70
     0
  9
$DIMALTD
 70
     2
  9
$DIMALTF
 40
25.4
  9
$DIMLFAC
 40
1.0
  9
$DIMTOFL
 70
     0
  9
$DIMTVP
 40
0.0
  9
$DIMTIX
 70
     0
  9
$DIMSOXD
 70
     0
  9
$DIMSAH
 70
     0
  9
$DIMBLK1
  1

  9
$DIMBLK2
  1

  9
$DIMSTYLE
  2
STANDARD
  9
$DIMCLRD
 70
     0
  9
$DIMCLRE
 70
     0
  9
$DIMCLRT
 70
     0
  9
$DIMTFAC
 40
1.0
  9
$DIMGAP
 40
0.06
  9
$DIMJUST
 70
     0
  9
$DIMSD1
 70
     0
  9
$DIMSD2
 70
     0
  9
$DIMTOLJ
 70
     1
  9
$DIMTZIN
 70
     1
  9
$DIMALTZ
 70
     0
  9
$DIMALTTZ
 70
     0
  9
$DIMFIT
 70
     3
  9
$DIMUPT
 70
     0
  9
$DIMUNIT
 70
     2
  9
$DIMDEC
 70
     4
  9
$DIMTDEC
 70
     4
  9
$DIMALTU
 70
     2
  9
$DIMALTTD
 70
     2
  9
$DIMTXSTY
  7
STANDARD
  9
$DIMAUNIT
 70
     0
  9
$LUNITS
 70
     2
  9
$LUPREC
 70
     4
  9
$SKETCHINC
 40
0.1
  9
$FILLETRAD
 40
0.5
  9
$AUNITS
 70
     0
  9
$AUPREC
 70
     0
  9
$MENU
  1
.
  9
$ELEVATION
 40
0.0
  9
$PELEVATION
 40
0.0
  9
$THICKNESS
 40
0.0
  9
$LIMCHECK
 70
     0
  9
$CHAMFERA
 40
0.5
  9
$CHAMFERB
 40
0.5
  9
$CHAMFERC
 40
1.0
  9
$CHAMFERD
 40
0.0
  9
$SKPOLY
 70
     0
  9
$TDCREATE
 40
2457059.4862175
  9
$TDUPDATE
 40
2457059.486217511
  9
$TDINDWG
 40
0.0000000116
  9
$TDUSRTIMER
 40
0.0000000116
  9
$USRTIMER
 70
     1
  9
$ANGBASE
 50
0.0
  9
$ANGDIR
 70
     0
  9
$PDMODE
 70
     0
  9
$PDSIZE
 40
-1.0
  9
$PLINEWID
 40
0.0
  9
$COORDS
 70
     1
  9
$SPLFRAME
 70
     0
  9
$SPLINETYPE
 70
     6
  9
$SPLINESEGS
 70
     8
  9
$ATTDIA
 70
     0
  9
$ATTREQ
 70
     1
  9
$HANDLING
 70
     1
  9
$HANDSEED
  5
48
  9
$SURFTAB1
 70
     6
  9
$SURFTAB2
 70
     6
  9
$SURFTYPE
 70
     6
  9
$SURFU
 70
     6
  9
$SURFV
 70
     6
  9
$UCSNAME
  2

  9
$UCSORG
 10
0.0
 20
0.0
 30
0.0
  9
$UCSXDIR
 10
1.0
 20
0.0
 30
0.0
  9
$UCSYDIR
 10
0.0
 20
1.0
 30
0.0
  9
$PUCSNAME
  2

  9
$PUCSORG
 10
0.0
 20
0.0
 30
0.0
  9
$PUCSXDIR
 10
1.0
 20
0.0
 30
0.0
  9
$PUCSYDIR
 10
0.0
 20
1.0
 30
0.0
  9
$USERI1
 70
     0
  9
$USERI2
 70
     0
  9
$USERI3
 70
     0
  9
$USERI4
 70
     0
  9
$USERI5
 70
     0
  9
$USERR1
 40
0.0
  9
$USERR2
 40
0.0
  9
$USERR3
 40
0.0
  9
$USERR4
 40
0.0
  9
$USERR5
 40
0.0
  9
$WORLDVIEW
 70
     1
  9
$SHADEDGE
 70
     3
  9
$SHADEDIF
 70
    70
  9
$TILEMODE
 70
     1
  9
$MAXACTVP
 70
    64
  9
$PINSBASE
 10
0.0
 20
0.0
 30
0.0
  9
$PLIMCHECK
 70
     0
  9
$PEXTMIN
 10
1.0000000000E+20
 20
1.0000000000E+20
 30
1.0000000000E+20
  9
$PEXTMAX
 10
-1.0000000000E+20
 20
-1.0000000000E+20
 30
-1.0000000000E+20
  9
$PLIMMIN
 10
0.0
 20
0.0
  9
$PLIMMAX
 10
12.0
 20
9.0
  9
$UNITMODE
 70
     0
  9
$VISRETAIN
 70
     1
  9
$PLINEGEN
 70
     0
  9
$PSLTSCALE
 70
     1
  9
$TREEDEPTH
 70
  3020
  9
$PICKSTYLE
 70
     1
  9
$CMLSTYLE
  2
STANDARD
  9
$CMLJUST
 70
     0
  9
$CMLSCALE
 40
1.0
  9
$SAVEIMAGES
 70
     1
  0
ENDSEC
  0
SECTION
  2
CLASSES
  0
CLASS
  1
ACDBDICTIONARYWDFLT
  2
AcDbDictionaryWithDefault
  3
ObjectDBX Classes
 90
    32768
280
     0
281
     0
  0
CLASS
  1
XRECORD
  2
AcDbXrecord
  3
AutoCAD 2000
 90
    32768
280
     0
281
     0
  0
CLASS
  1
LWPOLYLINE
  2
AcDbPolyline
  3
AutoCAD 2000
 90
    32768
280
     0
281
     1
  0
CLASS
  1
HATCH
  2
AcDbHatch
  3
AutoCAD 2000
 90
    32768
280
     0
281
     1
  0
CLASS
  1
ACDBPLACEHOLDER
  2
AcDbPlaceHolder
  3
ObjectDBX Classes
 90
        0
280
     0
281
     0
  0
CLASS
  1
LAYOUT
  2
AcDbLayout
  3
ObjectDBX Classes
 90
        0
280
     0
281
     0
  0
ENDSEC
  0
SECTION
  2
TABLES
  0
TABLE
  2
VPORT
  5
8
330
0
100
AcDbSymbolTable
 70
     1
  0
VPORT
  5
29
330
8
100
AcDbSymbolTableRecord
100
AcDbViewportTableRecord
  2
*ACTIVE
 70
     0
 10
0.0
 20
0.0
 11
1.0
 21
1.0
 12
8.2677165354
 22
5.8464566929
 13
0.0
 23
0.0
 14
0.5
 24
0.5
 15
0.5
 25
0.5
 16
0.0
 26
0.0
 36
1.0
 17
0.0
 27
0.0
 37
0.0
 40
11.6929133858
 41
1.4141414141
 42
50.0
 43
0.0
 44
0.0
 50
0.0
 51
0.0
 71
     0
 72
  2000
 73
     1
 74
     3
 75
     0
 76
     0
 77
     0
 78
     0
  0
ENDTAB
  0
TABLE
  2
LTYPE
  5
5
330
0
100
AcDbSymbolTable
 70
     6
  0
LTYPE
  5
14
330
5
100
AcDbSymbolTableRecord
100
AcDbLinetypeTableRecord
  2
BYBLOCK
 70
     0
  3

 72
    65
 73
     0
 40
0.0
  0
LTYPE
  5
15
330
5
100
AcDbSymbolTableRecord
100
AcDbLinetypeTableRecord
  2
BYLAYER
 70
     0
  3

 72
    65
 73
     0
 40
0.0
  0
LTYPE
  5
16
330
5
100
AcDbSymbolTableRecord
100
AcDbLinetypeTableRecord
  2
CONTINUOUS
 70
     0
  3
Solid line
 72
    65
 73
     0
 40
0.0
  0
LTYPE
  5
2A
330
5
100
AcDbSymbolTableRecord
100
AcDbLinetypeTableRecord
  2
HIDDEN
 70
     0
  3
Hidden __ __ __ __ __ __ __ __ __ __ __ __ __ __
 72
    65
 73
     2
 40
0.075
 49
0.05
 74
     0
 49
-0.025
 74
     0
  0
LTYPE
  5
2B
330
5
100
AcDbSymbolTableRecord
100
AcDbLinetypeTableRecord
  2
PHANTOM
 70
     0
  3
Phantom ______  __  __  ______  __  __  ______
 72
    65
 73
     6
 40
0.5
 49
0.25
 74
     0
 49
-0.05
 74
     0
 49
0.05
 74
     0
 49
-0.05
 74
     0
 49
0.05
 74
     0
 49
-0.05
 74
     0
  0
LTYPE
  5
2C
330
5
100
AcDbSymbolTableRecord
100
AcDbLinetypeTableRecord
  2
CENTER
 70
     0
  3
Center ____ _ ____ _ ____ _ ____ _ ____ _ ____
 72
    65
 73
     4
 40
0.4
 49
0.25
 74
     0
 49
-0.05
 74
     0
 49
0.05
 74
     0
 49
-0.05
 74
     0
  0
LTYPE
  5
2D
330
5
100
AcDbSymbolTableRecord
100
AcDbLinetypeTableRecord
  2
CENTERX2
 70
     0
  3
Center (2x) ________  __  ________  __  _____
 72
    65
 73
     4
 40
0.8
 49
0.5
 74
     0
 49
-0.1
 74
     0
 49
0.1
 74
     0
 49
-0.1
 74
     0
  0
LTYPE
  5
2E
330
5
100
AcDbSymbolTableRecord
100
AcDbLinetypeTableRecord
  2
DOT2
 70
     0
  3
Dot (.5x) ........................................
 72
    65
 73
     2
 40
0.025
 49
0.0
 74
     0
 49
-0.025
 74
     0
  0
ENDTAB
  0
TABLE
  2
LAYER
  5
2
330
0
100
AcDbSymbolTable
 70
     2
  0
LAYER
  5
10
330
2
100
AcDbSymbolTableRecord
100
AcDbLayerTableRecord
  2
0
 70
     0
 62
     7
  6
CONTINUOUS
  0
LAYER
  5
2F
330
2
100
AcDbSymbolTableRecord
100
AcDbLayerTableRecord
  2
GRAIN DIRECTION
 70
     0
 62
   2
  6
CONTINUOUS
  0
ENDTAB
  0
TABLE
  2
STYLE
  5
3
330
0
100
AcDbSymbolTable
 70
     1
  0
STYLE
  5
11
330
3
100
AcDbSymbolTableRecord
100
AcDbTextStyleTableRecord
  2
STANDARD
 70
     0
 40
0.0
 41
1.0
 50
0.0
 71
     0
 42
0.2
  3
txt
  4

  0
ENDTAB
  0
TABLE
  2
VIEW
  5
6
330
0
100
AcDbSymbolTable
 70
     0
  0
ENDTAB
  0
TABLE
  2
UCS
  5
7
330
0
100
AcDbSymbolTable
 70
     0
  0
ENDTAB
  0
TABLE
  2
APPID
  5
9
330
0
100
AcDbSymbolTable
 70
     1
  0
APPID
  5
12
330
9
100
AcDbSymbolTableRecord
100
AcDbRegAppTableRecord
  2
ACAD
 70
     0
  0
ENDTAB
  0
TABLE
  2
DIMSTYLE
  5
A
330
0
100
AcDbSymbolTable
 70
     1
  0
DIMSTYLE
105
27
330
A
100
AcDbSymbolTableRecord
100
AcDbDimStyleTableRecord
  2
STANDARD
 70
     0
  3

  4

  5

  6

  7

 40
1.0
 41
0.18
 42
0.0625
 43
0.38
 44
0.18
 45
0.0
 46
0.0
 47
0.0
 48
0.0
140
0.18
141
0.09
142
0.0
143
25.4
144
1.0
145
0.0
146
1.0
147
0.09
 71
     0
 72
     0
 73
     1
 74
     1
 75
     0
 76
     0
 77
     0
 78
     0
170
     0
171
     2
172
     0
173
     0
174
     0
175
     0
176
     0
177
     0
178
     0
270
     2
271
     4
272
     4
273
     2
274
     2
340
11
275
     0
280
     0
281
     0
282
     0
283
     1
284
     0
285
     0
286
     0
287
     3
288
     0
  0
ENDTAB
  0
TABLE
  2
BLOCK_RECORD
  5
1
330
0
100
AcDbSymbolTable
 70
     1
  0
BLOCK_RECORD
  5
1F
330
1
100
AcDbSymbolTableRecord
100
AcDbBlockTableRecord
  2
*MODEL_SPACE
  0
BLOCK_RECORD
  5
1B
330
1
100
AcDbSymbolTableRecord
100
AcDbBlockTableRecord
  2
*PAPER_SPACE
  0
ENDTAB
  0
ENDSEC
  0
SECTION
  2
BLOCKS
  0
BLOCK
  5
20
330
1F
100
AcDbEntity
  8
0
100
AcDbBlockBegin
  2
*MODEL_SPACE
 70
     0
 71
     0
 10
0.0
 20
0.0
 30
0.0
  3
*MODEL_SPACE
  1

  0
ENDBLK
  5
21
330
1F
100
AcDbEntity
  8
0
100
AcDbBlockEnd
  0
BLOCK
  5
1C
330
1B
100
AcDbEntity
 67
     1
  8
0
100
AcDbBlockBegin
  2
*PAPER_SPACE
 70
     0
 71
     0
 10
0.0
 20
0.0
 30
0.0
  3
*PAPER_SPACE
  1

  0
ENDBLK
  5
1D
330
1B
100
AcDbEntity
 67
     1
  8
0
100
AcDbBlockEnd
  0
ENDSEC
  0
SECTION
  2
ENTITIES
  0
ARC
  5
fdc51b36
330
1F
  8
Layer
100
AcDbEntity
  6
CONTINUOUS
100
AcDbCircle
 10
7.761559842371857
 20
-10.344237005092058
 30
0.0
 40
5.336127395572134
100
AcDbArc
 50
133.13144996530136
 51
136.86855003469825
  0
ARC
  5
142fb42a
330
1F
  8
Layer
100
AcDbEntity
  6
CONTINUOUS
100
AcDbCircle
 10
7.7615598423705965
 20
-3.0478889655022656
 30
0.0
 40
5.336127395570352
100
AcDbArc
 50
-136.86855003469887
 51
-133.13144996530073
  0
ARC
  5
c6ec038e
330
1F
  8
Layer
100
AcDbEntity
  6
CONTINUOUS
100
AcDbCircle
 10
0.4652118027812975
 20
-3.047888965501471
 30
0.0
 40
5.336127395571494
100
AcDbArc
 50
-46.86855003469867
 51
-43.131449965301336
  0
ARC
  5
5850cd51
330
1F
  8
Layer
100
AcDbEntity
  6
CONTINUOUS
100
AcDbCircle
 10
0.4652118027812975
 20
-10.344237005091593
 30
0.0
 40
5.336127395571494
100
AcDbArc
 50
43.131449965301336
 51
46.86855003469867
  0
ARC
  5
f3875092
330
1F
  8
Layer
100
AcDbEntity
  6
CONTINUOUS
100
AcDbCircle
 10
6.961559843186944
 20
-10.344237005091038
 30
0.0
 40
5.3361273955712285
100
AcDbArc
 50
133.1314499653012
 51
136.8685500346987
  0
ARC
  5
091b3a93
330
1F
  8
Layer
100
AcDbEntity
  6
CONTINUOUS
100
AcDbCircle
 10
6.961559843187353
 20
-3.0478889655008756
 30
0.0
 40
5.336127395571808
100
AcDbArc
 50
-136.8685500346985
 51
-133.13144996530139
  0
ARC
  5
4ecb6212
330
1F
  8
Layer
100
AcDbEntity
  6
CONTINUOUS
100
AcDbCircle
 10
-0.33478819640215196
 20
-3.0478889655019357
 30
0.0
 40
5.336127395570315
100
AcDbArc
 50
-46.868550034699076
 51
-43.13144996530092
  0
ARC
  5
f85216ad
330
1F
  8
Layer
100
AcDbEntity
  6
CONTINUOUS
100
AcDbCircle
 10
-0.3347881964025752
 20
-10.344237005090811
 30
0.0
 40
5.336127395570913
100
AcDbArc
 50
43.13144996530113
 51
46.86855003469888
  0
ARC
  5
59aa2ccf
330
1F
  8
Layer
100
AcDbEntity
  6
CONTINUOUS
100
AcDbCircle
 10
6.161559844003485
 20
-10.344237005091493
 30
0.0
 40
5.336127395572094
100
AcDbArc
 50
133.13144996530156
 51
136.86855003469844
  0
ARC
  5
b17fa725
330
1F
  8
Layer
100
AcDbEntity
  6
CONTINUOUS
100
AcDbCircle
 10
6.1615598440026496
 20
-3.047888965501358
 30
0.0
 40
5.336127395570913
100
AcDbArc
 50
-136.86855003469887
 51
-133.1314499653011
  0
ARC
  5
61d38e89
330
1F
  8
Layer
100
AcDbEntity
  6
CONTINUOUS
100
AcDbCircle
 10
-1.1347881955870602
 20
-3.047888965500947
 30
0.0
 40
5.336127395571494
100
AcDbArc
 50
-46.86855003469867
 51
-43.131449965301336
  0
ARC
  5
ae300471
330
1F
  8
Layer
100
AcDbEntity
  6
CONTINUOUS
100
AcDbCircle
 10
-1.1347881955870602
 20
-10.344237005091069
 30
0.0
 40
5.336127395571494
100
AcDbArc
 50
43.131449965301336
 51
46.86855003469867
  0
ARC
  5
2890ecc9
330
1F
  8
Layer
100
AcDbEntity
  6
CONTINUOUS
100
AcDbCircle
 10
5.361559844818943
 20
-10.344237005090957
 30
0.0
 40
5.336127395571345
100
AcDbArc
 50
133.13144996530121
 51
136.86855003469864
  0
ARC
  5
2a749942
330
1F
  8
Layer
100
AcDbEntity
  6
CONTINUOUS
100
AcDbCircle
 10
5.361559844817698
 20
-3.0478889655022936
 30
0.0
 40
5.336127395569576
100
AcDbArc
 50
-136.86855003469938
 51
-133.13144996530067
  0
ARC
  5
358930a3
330
1F
  8
Layer
100
AcDbEntity
  6
CONTINUOUS
100
AcDbCircle
 10
-1.9347881947716012
 20
-3.047888965500398
 30
0.0
 40
5.336127395572251
100
AcDbArc
 50
-46.86855003469843
 51
-43.13144996530162
  0
ARC
  5
2310699f
330
1F
  8
Layer
100
AcDbEntity
  6
CONTINUOUS
100
AcDbCircle
 10
-1.934788194769069
 20
-10.344237005089076
 30
0.0
 40
5.336127395568681
100
AcDbArc
 50
43.13144996530048
 51
46.86855003469979
  0
ARC
  5
74401d17
330
1F
  8
Layer
100
AcDbEntity
  6
CONTINUOUS
100
AcDbCircle
 10
5.361559844819684
 20
-9.544237005907679
 30
0.0
 40
5.336127395572408
100
AcDbArc
 50
133.13144996530158
 51
136.8685500346983
  0
ARC
  5
cd770906
330
1F
  8
Layer
100
AcDbEntity
  6
CONTINUOUS
100
AcDbCircle
 10
5.36155984481926
 20
-2.247888966316682
 30
0.0
 40
5.336127395571808
100
AcDbArc
 50
-136.8685500346985
 51
-133.13144996530139
  0
ARC
  5
f2ec8d2a
330
1F
  8
Layer
100
AcDbEntity
  6
CONTINUOUS
100
AcDbCircle
 10
-1.9347881947716132
 20
-2.24788896631637
 30
0.0
 40
5.336127395572251
100
AcDbArc
 50
-46.86855003469843
 51
-43.13144996530162
  0
ARC
  5
5804514f
330
1F
  8
Layer
100
AcDbEntity
  6
CONTINUOUS
100
AcDbCircle
 10
-1.9347881947711891
 20
-9.544237005907142
 30
0.0
 40
5.336127395571651
100
AcDbArc
 50
43.13144996530142
 51
46.86855003469864
  0
ARC
  5
9f49eb06
330
1F
  8
Layer
100
AcDbEntity
  6
CONTINUOUS
100
AcDbCircle
 10
6.161559844002794
 20
-9.54423700590673
 30
0.0
 40
5.3361273955712285
100
AcDbArc
 50
133.1314499653012
 51
136.8685500346987
  0
ARC
  5
47cafe2e
330
1F
  8
Layer
100
AcDbEntity
  6
CONTINUOUS
100
AcDbCircle
 10
6.161559844002368
 20
-2.2478889663174035
 30
0.0
 40
5.336127395570626
100
AcDbArc
 50
-136.8685500346989
 51
-133.131449965301
  0
ARC
  5
bd7f0be0
330
1F
  8
Layer
100
AcDbEntity
  6
CONTINUOUS
100
AcDbCircle
 10
-1.1347881955873542
 20
-2.2478889663165678
 30
0.0
 40
5.3361273955718085
100
AcDbArc
 50
-46.86855003469861
 51
-43.1314499653015
  0
ARC
  5
d88e0d48
330
1F
  8
Layer
100
AcDbEntity
  6
CONTINUOUS
100
AcDbCircle
 10
-1.1347881955869306
 20
-9.544237005906716
 30
0.0
 40
5.33612739557121
100
AcDbArc
 50
43.13144996530128
 51
46.86855003469881
  0
ARC
  5
6df26e2d
330
1F
  8
Layer
100
AcDbEntity
  6
CONTINUOUS
100
AcDbCircle
 10
6.961559843186791
 20
-9.54423700590678
 30
0.0
 40
5.3361273955712
100
AcDbArc
 50
133.13144996530107
 51
136.86855003469861
  0
ARC
  5
1840a657
330
1F
  8
Layer
100
AcDbEntity
  6
CONTINUOUS
100
AcDbCircle
 10
6.961559843187227
 20
-2.2478889663166304
 30
0.0
 40
5.336127395571808
100
AcDbArc
 50
-136.8685500346985
 51
-133.13144996530139
  0
ARC
  5
12f4f3dc
330
1F
  8
Layer
100
AcDbEntity
  6
CONTINUOUS
100
AcDbCircle
 10
-0.334788196403331
 20
-2.24788896631663
 30
0.0
 40
5.3361273955718085
100
AcDbArc
 50
-46.86855003469861
 51
-43.1314499653015
  0
ARC
  5
2d3f7dc7
330
1F
  8
Layer
100
AcDbEntity
  6
CONTINUOUS
100
AcDbCircle
 10
-0.3347881964016328
 20
-9.544237005905519
 30
0.0
 40
5.3361273955694175
100
AcDbArc
 50
43.13144996530077
 51
46.868550034699545
  0
ARC
  5
a992d334
330
1F
  8
Layer
100
AcDbEntity
  6
CONTINUOUS
100
AcDbCircle
 10
7.761559842371679
 20
-9.54423700590777
 30
0.0
 40
5.336127395572134
100
AcDbArc
 50
133.13144996530136
 51
136.86855003469825
  0
ARC
  5
00450c0c
330
1F
  8
Layer
100
AcDbEntity
  6
CONTINUOUS
100
AcDbCircle
 10
7.761559842370419
 20
-2.247888966317977
 30
0.0
 40
5.336127395570352
100
AcDbArc
 50
-136.86855003469887
 51
-133.13144996530073
  0
ARC
  5
f43197a4
330
1F
  8
Layer
100
AcDbEntity
  6
CONTINUOUS
100
AcDbCircle
 10
0.46521180278111984
 20
-2.2478889663171824
 30
0.0
 40
5.336127395571494
100
AcDbArc
 50
-46.86855003469867
 51
-43.131449965301336
  0
ARC
  5
c978a004
330
1F
  8
Layer
100
AcDbEntity
  6
CONTINUOUS
100
AcDbCircle
 10
0.46521180278111984
 20
-9.544237005907304
 30
0.0
 40
5.336127395571494
100
AcDbArc
 50
43.131449965301336
 51
46.86855003469867
  0
ARC
  5
14a577bc
330
1F
  8
Layer
100
AcDbEntity
  6
CONTINUOUS
100
AcDbCircle
 10
7.761559842371268
 20
-8.744237006723283
 30
0.0
 40
5.336127395571809
100
AcDbArc
 50
133.13144996530139
 51
136.8685500346985
  0
ARC
  5
c8e65653
330
1F
  8
Layer
100
AcDbEntity
  6
CONTINUOUS
100
AcDbCircle
 10
7.761559842370431
 20
-1.447888967133545
 30
0.0
 40
5.336127395570627
100
AcDbArc
 50
-136.8685500346989
 51
-133.131449965301
  0
ARC
  5
7faf007c
330
1F
  8
Layer
100
AcDbEntity
  6
CONTINUOUS
100
AcDbCircle
 10
0.46521180278176155
 20
-1.4478889671337702
 30
0.0
 40
5.336127395570315
100
AcDbArc
 50
-46.868550034699076
 51
-43.13144996530092
  0
ARC
  5
5a110fdd
330
1F
  8
Layer
100
AcDbEntity
  6
CONTINUOUS
100
AcDbCircle
 10
0.4652118027817629
 20
-8.744237006722221
 30
0.0
 40
5.336127395570313
100
AcDbArc
 50
43.131449965300924
 51
46.868550034699076
  0
ARC
  5
d3df1eb8
330
1F
  8
Layer
100
AcDbEntity
  6
CONTINUOUS
100
AcDbCircle
 10
6.961559843188123
 20
-8.744237006724145
 30
0.0
 40
5.33612739557299
100
AcDbArc
 50
133.1314499653018
 51
136.8685500346981
  0
ARC
  5
d6783bab
330
1F
  8
Layer
100
AcDbEntity
  6
CONTINUOUS
100
AcDbCircle
 10
6.961559843185589
 20
-1.4478889671344213
 30
0.0
 40
5.3361273955694175
100
AcDbArc
 50
-136.86855003469924
 51
-133.13144996530045
  0
ARC
  5
98bf8817
330
1F
  8
Layer
100
AcDbEntity
  6
CONTINUOUS
100
AcDbCircle
 10
-0.33478819640325774
 20
-1.4478889671327368
 30
0.0
 40
5.336127395571799
100
AcDbArc
 50
-46.86855003469871
 51
-43.131449965301606
  0
ARC
  5
68850a0d
330
1F
  8
Layer
100
AcDbEntity
  6
CONTINUOUS
100
AcDbCircle
 10
-0.3347881964032706
 20
-8.74423700672331
 30
0.0
 40
5.336127395571808
100
AcDbArc
 50
43.1314499653015
 51
46.868550034698615
  0
ARC
  5
80059c52
330
1F
  8
Layer
100
AcDbEntity
  6
CONTINUOUS
100
AcDbCircle
 10
6.161559844003422
 20
-8.744237006723386
 30
0.0
 40
5.336127395572094
100
AcDbArc
 50
133.13144996530156
 51
136.86855003469844
  0
ARC
  5
5b49244e
330
1F
  8
Layer
100
AcDbEntity
  6
CONTINUOUS
100
AcDbCircle
 10
6.161559844002587
 20
-1.447888967133251
 30
0.0
 40
5.336127395570913
100
AcDbArc
 50
-136.8685500346989
 51
-133.13144996530113
  0
ARC
  5
a9184be4
330
1F
  8
Layer
100
AcDbEntity
  6
CONTINUOUS
100
AcDbCircle
 10
-1.1347881955873418
 20
-1.4478889671326147
 30
0.0
 40
5.3361273955718085
100
AcDbArc
 50
-46.86855003469861
 51
-43.1314499653015
  0
ARC
  5
18ade85a
330
1F
  8
Layer
100
AcDbEntity
  6
CONTINUOUS
100
AcDbCircle
 10
-1.1347881955869181
 20
-8.744237006722763
 30
0.0
 40
5.33612739557121
100
AcDbArc
 50
43.13144996530128
 51
46.86855003469881
  0
ARC
  5
51bbcfed
330
1F
  8
Layer
100
AcDbEntity
  6
CONTINUOUS
100
AcDbCircle
 10
5.3615598448203015
 20
-8.744237006724251
 30
0.0
 40
5.33612739557322
100
AcDbArc
 50
133.1314499653024
 51
136.8685500346986
  0
ARC
  5
9ec2952b
330
1F
  8
Layer
100
AcDbEntity
  6
CONTINUOUS
100
AcDbCircle
 10
5.361559844818534
 20
-1.447888967133454
 30
0.0
 40
5.33612739557077
100
AcDbArc
 50
-136.8685500346989
 51
-133.13144996530107
  0
ARC
  5
dbc08a13
330
1F
  8
Layer
100
AcDbEntity
  6
CONTINUOUS
100
AcDbCircle
 10
-1.9347881947713936
 20
-1.4478889671326187
 30
0.0
 40
5.336127395571951
100
AcDbArc
 50
-46.868550034698536
 51
-43.13144996530153
  0
ARC
  5
8dc4da0e
330
1F
  8
Layer
100
AcDbEntity
  6
CONTINUOUS
100
AcDbCircle
 10
-1.9347881947702443
 20
-8.74423700672217
 30
0.0
 40
5.336127395570278
100
AcDbArc
 50
43.1314499653004
 51
46.86855003469862
  0
ARC
  5
bc3252aa
330
1F
  8
Layer
100
AcDbEntity
  6
CONTINUOUS
100
AcDbCircle
 10
7.761559842371625
 20
-7.94423700753962
 30
0.0
 40
5.336127395572369
100
AcDbArc
 50
133.13144996530158
 51
136.8685500346983
  0
ARC
  5
0b9a52fe
330
1F
  8
Layer
100
AcDbEntity
  6
CONTINUOUS
100
AcDbCircle
 10
7.761559842369969
 20
-0.647888967949922
 30
0.0
 40
5.33612739557002
100
AcDbArc
 50
-136.86855003469924
 51
-133.13144996530085
  0
ARC
  5
38225ce6
330
1F
  8
Layer
100
AcDbEntity
  6
CONTINUOUS
100
AcDbCircle
 10
0.46521180278172247
 20
-0.6478889679497106
 30
0.0
 40
5.336127395570315
100
AcDbArc
 50
-46.868550034699076
 51
-43.13144996530092
  0
ARC
  5
b541f994
330
1F
  8
Layer
100
AcDbEntity
  6
CONTINUOUS
100
AcDbCircle
 10
0.46521180278132634
 20
-7.9442370075385735
 30
0.0
 40
5.336127395570884
100
AcDbArc
 50
43.131449965301236
 51
46.868550034698984
  0
ARC
  5
f565dff8
330
1F
  8
Layer
100
AcDbEntity
  6
CONTINUOUS
100
AcDbCircle
 10
6.961559843187775
 20
-7.944237007539813
 30
0.0
 40
5.336127395572408
100
AcDbArc
 50
133.1314499653016
 51
136.8685500346983
  0
ARC
  5
0404826f
330
1F
  8
Layer
100
AcDbEntity
  6
CONTINUOUS
100
AcDbCircle
 10
6.9615598431873495
 20
-0.6478889679488167
 30
0.0
 40
5.336127395571808
100
AcDbArc
 50
-136.8685500346985
 51
-133.13144996530139
  0
ARC
  5
c83793d0
330
1F
  8
Layer
100
AcDbEntity
  6
CONTINUOUS
100
AcDbCircle
 10
-0.33478819640320845
 20
-0.6478889679488162
 30
0.0
 40
5.3361273955718085
100
AcDbArc
 50
-46.86855003469861
 51
-43.1314499653015
  0
ARC
  5
1603a4e2
330
1F
  8
Layer
100
AcDbEntity
  6
CONTINUOUS
100
AcDbCircle
 10
-0.3347881964027848
 20
-7.944237007538965
 30
0.0
 40
5.33612739557121
100
AcDbArc
 50
43.13144996530129
 51
46.86855003469882
  0
ARC
  5
680ec8ff
330
1F
  8
Layer
100
AcDbEntity
  6
CONTINUOUS
100
AcDbCircle
 10
6.1615598440041275
 20
-7.944237007540153
 30
0.0
 40
5.33612739557299
100
AcDbArc
 50
133.1314499653018
 51
136.8685500346981
  0
ARC
  5
6d583b86
330
1F
  8
Layer
100
AcDbEntity
  6
CONTINUOUS
100
AcDbCircle
 10
6.161559844002456
 20
-0.6478889679495805
 30
0.0
 40
5.336127395570627
100
AcDbArc
 50
-136.8685500346989
 51
-133.131449965301
  0
ARC
  5
21ca429f
330
1F
  8
Layer
100
AcDbEntity
  6
CONTINUOUS
100
AcDbCircle
 10
-1.1347881955864314
 20
-0.6478889679495952
 30
0.0
 40
5.3361273955706165
100
AcDbArc
 50
-46.86855003469892
 51
-43.13144996530097
  0
ARC
  5
7a819bae
330
1F
  8
Layer
100
AcDbEntity
  6
CONTINUOUS
100
AcDbCircle
 10
-1.1347881955860086
 20
-7.944237007538046
 30
0.0
 40
5.33612739557002
100
AcDbArc
 50
43.131449965300774
 51
46.86855003469913
  0
ARC
  5
a9f29d82
330
1F
  8
Layer
100
AcDbEntity
  6
CONTINUOUS
100
AcDbCircle
 10
5.361559844819364
 20
-7.944237007539353
 30
0.0
 40
5.336127395571954
100
AcDbArc
 50
133.13144996530153
 51
136.86855003469853
  0
ARC
  5
9221c213
330
1F
  8
Layer
100
AcDbEntity
  6
CONTINUOUS
100
AcDbCircle
 10
5.361559844817243
 20
-0.6478889679506916
 30
0.0
 40
5.3361273955689645
100
AcDbArc
 50
-136.86855003469947
 51
-133.13144996530036
  0
ARC
  5
0f580715
330
1F
  8
Layer
100
AcDbEntity
  6
CONTINUOUS
100
AcDbCircle
 10
-1.9347881947709755
 20
-0.6478889679490072
 30
0.0
 40
5.336127395571346
100
AcDbArc
 50
-46.868550034698785
 51
-43.131449965301364
  0
ARC
  5
c56e9fd4
330
1F
  8
Layer
100
AcDbEntity
  6
CONTINUOUS
100
AcDbCircle
 10
-1.9347881947705643
 20
-7.944237007538506
 30
0.0
 40
5.336127395570756
100
AcDbArc
 50
43.13144996530106
 51
46.868550034698906
  0
ARC
  5
2aba4d82
330
1F
  8
Layer
100
AcDbEntity
  6
CONTINUOUS
100
AcDbCircle
 10
2.1889475901828432
 20
-7.971624749638277
 30
0.0
 40
1.2806705749373666
100
AcDbArc
 50
133.13144996530156
 51
136.86855003469827
  0
ARC
  5
a3eccb46
330
1F
  8
Layer
100
AcDbEntity
  6
CONTINUOUS
100
AcDbCircle
 10
2.18894759018307
 20
-6.220501220136137
 30
0.0
 40
1.2806705749376783
100
AcDbArc
 50
-136.86855003469825
 51
-133.1314499653024
  0
ARC
  5
1c9ccd9b
330
1F
  8
Layer
100
AcDbEntity
  6
CONTINUOUS
100
AcDbCircle
 10
0.4378240606808025
 20
-6.2205012201362475
 30
0.0
 40
1.280670574937525
100
AcDbArc
 50
-46.8685500346977
 51
-43.13144996530142
  0
ARC
  5
2d9d86ea
330
1F
  8
Layer
100
AcDbEntity
  6
CONTINUOUS
100
AcDbCircle
 10
0.43782406068144797
 20
-7.9716247496377495
 30
0.0
 40
1.2806705749366223
100
AcDbArc
 50
43.131449965300575
 51
46.86855003469946
  0
ARC
  5
d03eb639
330
1F
  8
Layer
100
AcDbEntity
  6
CONTINUOUS
100
AcDbCircle
 10
5.388947586920713
 20
-7.971624749641654
 30
0.0
 40
1.2806705749369152
100
AcDbArc
 50
133.131449965301
 51
136.868550034699
  0
ARC
  5
1eb29e41
330
1F
  8
Layer
100
AcDbEntity
  6
CONTINUOUS
100
AcDbCircle
 10
5.388947586920712
 20
-6.220501220140369
 30
0.0
 40
1.2806705749369147
100
AcDbArc
 50
-136.86855003469898
 51
-133.13144996530096
  0
ARC
  5
fbeb1b26
330
1F
  8
Layer
100
AcDbEntity
  6
CONTINUOUS
100
AcDbCircle
 10
3.6378240574194276
 20
-6.220501220140369
 30
0.0
 40
1.2806705749369152
100
AcDbArc
 50
-46.86855003469901
 51
-43.13144996530099
  0
ARC
  5
4c2013f5
330
1F
  8
Layer
100
AcDbEntity
  6
CONTINUOUS
100
AcDbCircle
 10
3.637824057419428
 20
-7.971624749641654
 30
0.0
 40
1.2806705749369147
100
AcDbArc
 50
43.131449965300995
 51
46.868550034699034
  0
ARC
  5
ac17119f
330
1F
  8
Layer
100
AcDbEntity
  6
CONTINUOUS
100
AcDbCircle
 10
5.388947586919497
 20
-4.771624752903355
 30
0.0
 40
1.280670574936325
100
AcDbArc
 50
133.13144996530013
 51
136.8685500346999
  0
ARC
  5
9807ff5b
330
1F
  8
Layer
100
AcDbEntity
  6
CONTINUOUS
100
AcDbCircle
 10
5.388947586919697
 20
-3.0205012234026984
 30
0.0
 40
1.2806705749366123
100
AcDbArc
 50
-136.86855003469924
 51
-133.13144996530036
  0
ARC
  5
99d83c6a
330
1F
  8
Layer
100
AcDbEntity
  6
CONTINUOUS
100
AcDbCircle
 10
3.63782405741885
 20
-3.020501223402701
 30
0.0
 40
1.280670574936608
100
AcDbArc
 50
-46.86855003469967
 51
-43.13144996530076
  0
ARC
  5
95f066f3
330
1F
  8
Layer
100
AcDbEntity
  6
CONTINUOUS
100
AcDbCircle
 10
3.6378240574190475
 20
-4.771624752903355
 30
0.0
 40
1.2806705749363243
100
AcDbArc
 50
43.13144996530014
 51
46.868550034699894
  0
ARC
  5
9e23dab1
330
1F
  8
Layer
100
AcDbEntity
  6
CONTINUOUS
100
AcDbCircle
 10
3.7889475885500143
 20
-6.371624751269089
 30
0.0
 40
1.2806705749360225
100
AcDbArc
 50
133.1314499652999
 51
136.86855003470055
  0
ARC
  5
3a36f76c
330
1F
  8
Layer
100
AcDbEntity
  6
CONTINUOUS
100
AcDbCircle
 10
3.788947588550432
 20
-4.620501221768657
 30
0.0
 40
1.2806705749366127
100
AcDbArc
 50
-136.86855003469967
 51
-133.13144996530076
  0
ARC
  5
180a89aa
330
1F
  8
Layer
100
AcDbEntity
  6
CONTINUOUS
100
AcDbCircle
 10
2.037824059049357
 20
-4.620501221768439
 30
0.0
 40
1.2806705749369152
100
AcDbArc
 50
-46.86855003469901
 51
-43.13144996530099
  0
ARC
  5
295a88b2
330
1F
  8
Layer
100
AcDbEntity
  6
CONTINUOUS
100
AcDbCircle
 10
2.0378240590493575
 20
-6.371624751269724
 30
0.0
 40
1.2806705749369147
100
AcDbArc
 50
43.131449965300995
 51
46.868550034699034
  0
ARC
  5
fe6b4710
330
1F
  8
Layer
100
AcDbEntity
  6
CONTINUOUS
100
AcDbCircle
 10
2.1889475901826425
 20
-4.771624752902692
 30
0.0
 40
1.2806705749369054
100
AcDbArc
 50
133.13144996530076
 51
136.8685500346988
  0
ARC
  5
e3c42843
330
1F
  8
Layer
100
AcDbEntity
  6
CONTINUOUS
100
AcDbCircle
 10
2.188947590182823
 20
-3.020501223401212
 30
0.0
 40
1.2806705749371747
100
AcDbArc
 50
-136.86855003469773
 51
-133.13144996530053
  0
ARC
  5
9e28210b
330
1F
  8
Layer
100
AcDbEntity
  6
CONTINUOUS
100
AcDbCircle
 10
0.43782406068161916
 20
-3.0205012234016335
 30
0.0
 40
1.2806705749365792
100
AcDbArc
 50
-46.868550034700334
 51
-43.131449965301385
  0
ARC
  5
e3c0f8a4
330
1F
  8
Layer
100
AcDbEntity
  6
CONTINUOUS
100
AcDbCircle
 10
0.437824060681378
 20
-4.771624752902692
 30
0.0
 40
1.2806705749369056
100
AcDbArc
 50
43.1314499653012
 51
46.86855003469924
  0
ARC
  5
af9a6c16
330
1F
  8
Layer
100
AcDbEntity
  6
CONTINUOUS
100
AcDbCircle
 10
5.619656248099236
 20
-4.017934619683479
 30
0.0
 40
1.2806705749360414
100
AcDbArc
 50
133.13144996529994
 51
136.86855003470052
  0
ARC
  5
f299ea26
330
1F
  8
Layer
100
AcDbEntity
  6
CONTINUOUS
100
AcDbCircle
 10
5.61965624809985
 20
-2.266811090182816
 30
0.0
 40
1.2806705749369147
100
AcDbArc
 50
-136.868550034699
 51
-133.13144996530096
  0
ARC
  5
21ffc171
330
1F
  8
Layer
100
AcDbEntity
  6
CONTINUOUS
100
AcDbCircle
 10
3.8685327185981415
 20
-2.2668110901823777
 30
0.0
 40
1.2806705749375251
100
AcDbArc
 50
-46.868550034698565
 51
-43.13144996530228
  0
ARC
  5
d9162590
330
1F
  8
Layer
100
AcDbEntity
  6
CONTINUOUS
100
AcDbCircle
 10
3.8685327185983387
 20
-4.017934619684334
 30
0.0
 40
1.2806705749372416
100
AcDbArc
 50
43.13144996530164
 51
46.868550034698764
  0
ARC
  5
b11aa08c
330
1F
  8
Layer
100
AcDbEntity
  6
CONTINUOUS
100
AcDbCircle
 10
1.9582389290009035
 20
-4.017934619684862
 30
0.0
 40
1.2806705749373666
100
AcDbArc
 50
133.13144996530153
 51
136.86855003469825
  0
ARC
  5
5ca4ba52
330
1F
  8
Layer
100
AcDbEntity
  6
CONTINUOUS
100
AcDbCircle
 10
1.9582389290011104
 20
-2.2668110901827276
 30
0.0
 40
1.2806705749376592
100
AcDbArc
 50
-136.86855003469782
 51
-133.13144996530195
  0
ARC
  5
4410ada6
330
1F
  8
Layer
100
AcDbEntity
  6
CONTINUOUS
100
AcDbCircle
 10
0.20711539949877622
 20
-2.2668110901827276
 30
0.0
 40
1.2806705749376595
100
AcDbArc
 50
-46.868550034698046
 51
-43.13144996530218
  0
ARC
  5
21baffc5
330
1F
  8
Layer
100
AcDbEntity
  6
CONTINUOUS
100
AcDbCircle
 10
0.2071153994991941
 20
-4.017934619684651
 30
0.0
 40
1.2806705749370686
100
AcDbArc
 50
43.1314499653013
 51
46.868550034698885
  0
ARC
  5
b3226097
330
1F
  8
Layer
100
AcDbEntity
  6
CONTINUOUS
100
AcDbCircle
 10
5.619656248100202
 20
-1.8525802911843758
 30
0.0
 40
1.280670574936553
100
AcDbArc
 50
133.1314499653005
 51
136.8685500346996
  0
ARC
  5
1f04d2c8
330
1F
  8
Layer
100
AcDbEntity
  6
CONTINUOUS
100
AcDbCircle
 10
5.619656248100826
 20
-0.10145676168298079
 30
0.0
 40
1.2806705749374359
100
AcDbArc
 50
-136.8685500346983
 51
-133.13144996530178
  0
ARC
  5
dc006fcb
330
1F
  8
Layer
100
AcDbEntity
  6
CONTINUOUS
100
AcDbCircle
 10
3.868532718599221
 20
-0.10145676168339846
 30
0.0
 40
1.2806705749368454
100
AcDbArc
 50
-46.86855003469907
 51
-43.13144996530083
  0
ARC
  5
4f7e0893
330
1F
  8
Layer
100
AcDbEntity
  6
CONTINUOUS
100
AcDbCircle
 10
3.8685327185994316
 20
-1.8525802911843725
 30
0.0
 40
1.280670574936548
100
AcDbArc
 50
43.1314499653004
 51
46.86855003469951
  0
ARC
  5
f7fb7042
330
1F
  8
Layer
100
AcDbEntity
  6
CONTINUOUS
100
AcDbCircle
 10
1.9582389290008413
 20
-1.8525802911848834
 30
0.0
 40
1.2806705749372225
100
AcDbArc
 50
133.1314499653014
 51
136.8685500346986
  0
ARC
  5
56347d79
330
1F
  8
Layer
100
AcDbEntity
  6
CONTINUOUS
100
AcDbCircle
 10
1.9582389290006823
 20
-0.10145676168332107
 30
0.0
 40
1.280670574936999
100
AcDbArc
 50
-136.86855003469884
 51
-133.13144996530104
  0
ARC
  5
f6d4ce05
330
1F
  8
Layer
100
AcDbEntity
  6
CONTINUOUS
100
AcDbCircle
 10
0.20711539949906987
 20
-0.10145676168311046
 30
0.0
 40
1.280670574937297
100
AcDbArc
 50
-46.868550034698515
 51
-43.13144996530159
  0
ARC
  5
1091b0f6
330
1F
  8
Layer
100
AcDbEntity
  6
CONTINUOUS
100
AcDbCircle
 10
0.20711539949922542
 20
-1.85258029118478
 30
0.0
 40
1.280670574937076
100
AcDbArc
 50
43.131449965301215
 51
46.86855003469879
  0
LINE
  5
3d1da6aa
330
1F
  8
Layer
100
AcDbEntity
  6
CONTINUOUS
100
AcDbLine
 10
0.9842519674999941
 20
-2.8372547450090315
 30
0.0
 11
4.842519680100004
 21
-2.8372547450090315
 31
0.0
  0
LINE
  5
390a1b3c
330
1F
  8
Layer
100
AcDbEntity
  6
CONTINUOUS
100
AcDbLine
 10
4.842519680100004
 20
-2.8372547450090315
 30
0.0
 11
4.842519680100004
 21
-1.2821366363590354
 31
0.0
  0
LINE
  5
6b724b90
330
1F
  8
Layer
100
AcDbEntity
  6
CONTINUOUS
100
AcDbLine
 10
4.842519680100004
 20
-1.2821366363590354
 30
0.0
 11
0.9842519674999941
 21
-1.2821366363590354
 31
0.0
  0
LINE
  5
63bc9fe3
330
1F
  8
Layer
100
AcDbEntity
  6
CONTINUOUS
100
AcDbLine
 10
0.9842519674999941
 20
-1.2821366363590354
 30
0.0
 11
0.9842519674999941
 21
-2.8372547450090315
 31
0.0
  0
ENDSEC
  0
SECTION
  2
OBJECTS
  0
DICTIONARY
  5
C
330
0
100
AcDbDictionary
  3
ACAD_GROUP
350
D
  3
ACAD_LAYOUT
350
1A
  3
ACAD_MLINESTYLE
350
17
  3
ACAD_PLOTSETTINGS
350
19
1001
ACAD
1000
TREAT_AS_HARD
1070
     0
  0
DICTIONARY
  5
D
102
{ACAD_REACTORS
330
C
102
}
330
C
100
AcDbDictionary
1001
ACAD
1000
TREAT_AS_HARD
1070
     0
  0
DICTIONARY
  5
1A
102
{ACAD_REACTORS
330
C
102
}
330
C
100
AcDbDictionary
1001
ACAD
1000
TREAT_AS_HARD
1070
     0
  0
DICTIONARY
  5
17
102
{ACAD_REACTORS
330
C
102
}
330
C
100
AcDbDictionary
  3
STANDARD
350
18
1001
ACAD
1000
TREAT_AS_HARD
1070
     0
  0
DICTIONARY
  5
19
102
{ACAD_REACTORS
330
C
102
}
330
C
100
AcDbDictionary
1001
ACAD
1000
TREAT_AS_HARD
1070
     0
  0
MLINESTYLE
  5
18
102
{ACAD_REACTORS
330
17
102
}
330
17
100
AcDbMlineStyle
  2
Standard
 70
     0
  3

 62
   256
 51
90.0
 52
90.0
 71
     2
 49
0.5
 62
   256
  6
BYLAYER
 49
-0.5
 62
   256
  6
BYLAYER
  0
ENDSEC
  0
EOF
