  0
SECTION
  2
HEADER
  9
$ACADVER
  1
AC1012
  9
$DWGCODEPAGE
  3
ansi_1252
  9
$INSUNITS
  1

  9
$INSBASE
 10
0.0
 20
0.0
 30
0.0
  9
$EXTMIN
 10
-1000.0
 20
-1000.0
 30
0.0
  9
$EXTMAX
 10
1000.0
 20
1000.0
 30
0.0
  9
$LIMMIN
 10
0.0
 20
0.0
  9
$LIMMAX
 10
0.0
 20
0.0
  9
$ORTHOMODE
 70
     0
  9
$REGENMODE
 70
     1
  9
$FILLMODE
 70
     1
  9
$QTEXTMODE
 70
     0
  9
$MIRRTEXT
 70
     1
  9
$DRAGMODE
 70
     2
  9
$LTSCALE
 40
1.0
  9
$OSMODE
 70
    37
  9
$ATTMODE
 70
     1
  9
$TEXTSIZE
 40
0.1377952756
  9
$TRACEWID
 40
0.05
  9
$TEXTSTYLE
  7
STANDARD
  9
$CLAYER
  8
0
  9
$CELTYPE
  6
BYLAYER
  9
$CECOLOR
 62
   256
  9
$CELTSCALE
 40
1.0
  9
$DELOBJ
 70
     1
  9
$DISPSILH
 70
     0
  9
$DIMSCALE
 40
1.0
  9
$DIMASZ
 40
0.2362204724
  9
$DIMEXO
 40
0.0393700787
  9
$DIMDLI
 40
0.38
  9
$DIMRND
 40
0.0
  9
$DIMDLE
 40
0.0
  9
$DIMEXE
 40
0.0393700787
  9
$DIMTP
 40
0.0
  9
$DIMTM
 40
0.0
  9
$DIMTXT
 40
0.1377952756
  9
$DIMCEN
 40
0.09
  9
$DIMTSZ
 40
0.0
  9
$DIMTOL
 70
     0
  9
$DIMLIM
 70
     0
  9
$DIMTIH
 70
     1
  9
$DIMTOH
 70
     1
  9
$DIMSE1
 70
     0
  9
$DIMSE2
 70
     0
  9
$DIMTAD
 70
     0
  9
$DIMZIN
 70
     1
  9
$DIMBLK
  1

  9
$DIMASO
 70
     1
  9
$DIMSHO
 70
     1
  9
$DIMPOST
  1

  9
$DIMAPOST
  1

  9
$DIMALT
 70
     0
  9
$DIMALTD
 70
     2
  9
$DIMALTF
 40
25.4
  9
$DIMLFAC
 40
1.0
  9
$DIMTOFL
 70
     0
  9
$DIMTVP
 40
0.0
  9
$DIMTIX
 70
     0
  9
$DIMSOXD
 70
     0
  9
$DIMSAH
 70
     0
  9
$DIMBLK1
  1

  9
$DIMBLK2
  1

  9
$DIMSTYLE
  2
STANDARD
  9
$DIMCLRD
 70
     0
  9
$DIMCLRE
 70
     0
  9
$DIMCLRT
 70
     0
  9
$DIMTFAC
 40
1.0
  9
$DIMGAP
 40
0.06
  9
$DIMJUST
 70
     0
  9
$DIMSD1
 70
     0
  9
$DIMSD2
 70
     0
  9
$DIMTOLJ
 70
     1
  9
$DIMTZIN
 70
     1
  9
$DIMALTZ
 70
     0
  9
$DIMALTTZ
 70
     0
  9
$DIMFIT
 70
     3
  9
$DIMUPT
 70
     0
  9
$DIMUNIT
 70
     2
  9
$DIMDEC
 70
     4
  9
$DIMTDEC
 70
     4
  9
$DIMALTU
 70
     2
  9
$DIMALTTD
 70
     2
  9
$DIMTXSTY
  7
STANDARD
  9
$DIMAUNIT
 70
     0
  9
$LUNITS
 70
     2
  9
$LUPREC
 70
     4
  9
$SKETCHINC
 40
0.1
  9
$FILLETRAD
 40
0.5
  9
$AUNITS
 70
     0
  9
$AUPREC
 70
     0
  9
$MENU
  1
.
  9
$ELEVATION
 40
0.0
  9
$PELEVATION
 40
0.0
  9
$THICKNESS
 40
0.0
  9
$LIMCHECK
 70
     0
  9
$CHAMFERA
 40
0.5
  9
$CHAMFERB
 40
0.5
  9
$CHAMFERC
 40
1.0
  9
$CHAMFERD
 40
0.0
  9
$SKPOLY
 70
     0
  9
$TDCREATE
 40
2457059.4862175
  9
$TDUPDATE
 40
2457059.486217511
  9
$TDINDWG
 40
0.0000000116
  9
$TDUSRTIMER
 40
0.0000000116
  9
$USRTIMER
 70
     1
  9
$ANGBASE
 50
0.0
  9
$ANGDIR
 70
     0
  9
$PDMODE
 70
     0
  9
$PDSIZE
 40
-1.0
  9
$PLINEWID
 40
0.0
  9
$COORDS
 70
     1
  9
$SPLFRAME
 70
     0
  9
$SPLINETYPE
 70
     6
  9
$SPLINESEGS
 70
     8
  9
$ATTDIA
 70
     0
  9
$ATTREQ
 70
     1
  9
$HANDLING
 70
     1
  9
$HANDSEED
  5
48
  9
$SURFTAB1
 70
     6
  9
$SURFTAB2
 70
     6
  9
$SURFTYPE
 70
     6
  9
$SURFU
 70
     6
  9
$SURFV
 70
     6
  9
$UCSNAME
  2

  9
$UCSORG
 10
0.0
 20
0.0
 30
0.0
  9
$UCSXDIR
 10
1.0
 20
0.0
 30
0.0
  9
$UCSYDIR
 10
0.0
 20
1.0
 30
0.0
  9
$PUCSNAME
  2

  9
$PUCSORG
 10
0.0
 20
0.0
 30
0.0
  9
$PUCSXDIR
 10
1.0
 20
0.0
 30
0.0
  9
$PUCSYDIR
 10
0.0
 20
1.0
 30
0.0
  9
$USERI1
 70
     0
  9
$USERI2
 70
     0
  9
$USERI3
 70
     0
  9
$USERI4
 70
     0
  9
$USERI5
 70
     0
  9
$USERR1
 40
0.0
  9
$USERR2
 40
0.0
  9
$USERR3
 40
0.0
  9
$USERR4
 40
0.0
  9
$USERR5
 40
0.0
  9
$WORLDVIEW
 70
     1
  9
$SHADEDGE
 70
     3
  9
$SHADEDIF
 70
    70
  9
$TILEMODE
 70
     1
  9
$MAXACTVP
 70
    64
  9
$PINSBASE
 10
0.0
 20
0.0
 30
0.0
  9
$PLIMCHECK
 70
     0
  9
$PEXTMIN
 10
1.0000000000E+20
 20
1.0000000000E+20
 30
1.0000000000E+20
  9
$PEXTMAX
 10
-1.0000000000E+20
 20
-1.0000000000E+20
 30
-1.0000000000E+20
  9
$PLIMMIN
 10
0.0
 20
0.0
  9
$PLIMMAX
 10
12.0
 20
9.0
  9
$UNITMODE
 70
     0
  9
$VISRETAIN
 70
     1
  9
$PLINEGEN
 70
     0
  9
$PSLTSCALE
 70
     1
  9
$TREEDEPTH
 70
  3020
  9
$PICKSTYLE
 70
     1
  9
$CMLSTYLE
  2
STANDARD
  9
$CMLJUST
 70
     0
  9
$CMLSCALE
 40
1.0
  9
$SAVEIMAGES
 70
     1
  0
ENDSEC
  0
SECTION
  2
CLASSES
  0
CLASS
  1
ACDBDICTIONARYWDFLT
  2
AcDbDictionaryWithDefault
  3
ObjectDBX Classes
 90
    32768
280
     0
281
     0
  0
CLASS
  1
XRECORD
  2
AcDbXrecord
  3
AutoCAD 2000
 90
    32768
280
     0
281
     0
  0
CLASS
  1
LWPOLYLINE
  2
AcDbPolyline
  3
AutoCAD 2000
 90
    32768
280
     0
281
     1
  0
CLASS
  1
HATCH
  2
AcDbHatch
  3
AutoCAD 2000
 90
    32768
280
     0
281
     1
  0
CLASS
  1
ACDBPLACEHOLDER
  2
AcDbPlaceHolder
  3
ObjectDBX Classes
 90
        0
280
     0
281
     0
  0
CLASS
  1
LAYOUT
  2
AcDbLayout
  3
ObjectDBX Classes
 90
        0
280
     0
281
     0
  0
ENDSEC
  0
SECTION
  2
TABLES
  0
TABLE
  2
VPORT
  5
8
330
0
100
AcDbSymbolTable
 70
     1
  0
VPORT
  5
29
330
8
100
AcDbSymbolTableRecord
100
AcDbViewportTableRecord
  2
*ACTIVE
 70
     0
 10
0.0
 20
0.0
 11
1.0
 21
1.0
 12
8.2677165354
 22
5.8464566929
 13
0.0
 23
0.0
 14
0.5
 24
0.5
 15
0.5
 25
0.5
 16
0.0
 26
0.0
 36
1.0
 17
0.0
 27
0.0
 37
0.0
 40
11.6929133858
 41
1.4141414141
 42
50.0
 43
0.0
 44
0.0
 50
0.0
 51
0.0
 71
     0
 72
  2000
 73
     1
 74
     3
 75
     0
 76
     0
 77
     0
 78
     0
  0
ENDTAB
  0
TABLE
  2
LTYPE
  5
5
330
0
100
AcDbSymbolTable
 70
     6
  0
LTYPE
  5
14
330
5
100
AcDbSymbolTableRecord
100
AcDbLinetypeTableRecord
  2
BYBLOCK
 70
     0
  3

 72
    65
 73
     0
 40
0.0
  0
LTYPE
  5
15
330
5
100
AcDbSymbolTableRecord
100
AcDbLinetypeTableRecord
  2
BYLAYER
 70
     0
  3

 72
    65
 73
     0
 40
0.0
  0
LTYPE
  5
16
330
5
100
AcDbSymbolTableRecord
100
AcDbLinetypeTableRecord
  2
CONTINUOUS
 70
     0
  3
Solid line
 72
    65
 73
     0
 40
0.0
  0
LTYPE
  5
2A
330
5
100
AcDbSymbolTableRecord
100
AcDbLinetypeTableRecord
  2
HIDDEN
 70
     0
  3
Hidden __ __ __ __ __ __ __ __ __ __ __ __ __ __
 72
    65
 73
     2
 40
0.075
 49
0.05
 74
     0
 49
-0.025
 74
     0
  0
LTYPE
  5
2B
330
5
100
AcDbSymbolTableRecord
100
AcDbLinetypeTableRecord
  2
PHANTOM
 70
     0
  3
Phantom ______  __  __  ______  __  __  ______
 72
    65
 73
     6
 40
0.5
 49
0.25
 74
     0
 49
-0.05
 74
     0
 49
0.05
 74
     0
 49
-0.05
 74
     0
 49
0.05
 74
     0
 49
-0.05
 74
     0
  0
LTYPE
  5
2C
330
5
100
AcDbSymbolTableRecord
100
AcDbLinetypeTableRecord
  2
CENTER
 70
     0
  3
Center ____ _ ____ _ ____ _ ____ _ ____ _ ____
 72
    65
 73
     4
 40
0.4
 49
0.25
 74
     0
 49
-0.05
 74
     0
 49
0.05
 74
     0
 49
-0.05
 74
     0
  0
LTYPE
  5
2D
330
5
100
AcDbSymbolTableRecord
100
AcDbLinetypeTableRecord
  2
CENTERX2
 70
     0
  3
Center (2x) ________  __  ________  __  _____
 72
    65
 73
     4
 40
0.8
 49
0.5
 74
     0
 49
-0.1
 74
     0
 49
0.1
 74
     0
 49
-0.1
 74
     0
  0
LTYPE
  5
2E
330
5
100
AcDbSymbolTableRecord
100
AcDbLinetypeTableRecord
  2
DOT2
 70
     0
  3
Dot (.5x) ........................................
 72
    65
 73
     2
 40
0.025
 49
0.0
 74
     0
 49
-0.025
 74
     0
  0
ENDTAB
  0
TABLE
  2
LAYER
  5
2
330
0
100
AcDbSymbolTable
 70
     2
  0
LAYER
  5
10
330
2
100
AcDbSymbolTableRecord
100
AcDbLayerTableRecord
  2
0
 70
     0
 62
     7
  6
CONTINUOUS
  0
LAYER
  5
2F
330
2
100
AcDbSymbolTableRecord
100
AcDbLayerTableRecord
  2
GRAIN DIRECTION
 70
     0
 62
   2
  6
CONTINUOUS
  0
ENDTAB
  0
TABLE
  2
STYLE
  5
3
330
0
100
AcDbSymbolTable
 70
     1
  0
STYLE
  5
11
330
3
100
AcDbSymbolTableRecord
100
AcDbTextStyleTableRecord
  2
STANDARD
 70
     0
 40
0.0
 41
1.0
 50
0.0
 71
     0
 42
0.2
  3
txt
  4

  0
ENDTAB
  0
TABLE
  2
VIEW
  5
6
330
0
100
AcDbSymbolTable
 70
     0
  0
ENDTAB
  0
TABLE
  2
UCS
  5
7
330
0
100
AcDbSymbolTable
 70
     0
  0
ENDTAB
  0
TABLE
  2
APPID
  5
9
330
0
100
AcDbSymbolTable
 70
     1
  0
APPID
  5
12
330
9
100
AcDbSymbolTableRecord
100
AcDbRegAppTableRecord
  2
ACAD
 70
     0
  0
ENDTAB
  0
TABLE
  2
DIMSTYLE
  5
A
330
0
100
AcDbSymbolTable
 70
     1
  0
DIMSTYLE
105
27
330
A
100
AcDbSymbolTableRecord
100
AcDbDimStyleTableRecord
  2
STANDARD
 70
     0
  3

  4

  5

  6

  7

 40
1.0
 41
0.18
 42
0.0625
 43
0.38
 44
0.18
 45
0.0
 46
0.0
 47
0.0
 48
0.0
140
0.18
141
0.09
142
0.0
143
25.4
144
1.0
145
0.0
146
1.0
147
0.09
 71
     0
 72
     0
 73
     1
 74
     1
 75
     0
 76
     0
 77
     0
 78
     0
170
     0
171
     2
172
     0
173
     0
174
     0
175
     0
176
     0
177
     0
178
     0
270
     2
271
     4
272
     4
273
     2
274
     2
340
11
275
     0
280
     0
281
     0
282
     0
283
     1
284
     0
285
     0
286
     0
287
     3
288
     0
  0
ENDTAB
  0
TABLE
  2
BLOCK_RECORD
  5
1
330
0
100
AcDbSymbolTable
 70
     1
  0
BLOCK_RECORD
  5
1F
330
1
100
AcDbSymbolTableRecord
100
AcDbBlockTableRecord
  2
*MODEL_SPACE
  0
BLOCK_RECORD
  5
1B
330
1
100
AcDbSymbolTableRecord
100
AcDbBlockTableRecord
  2
*PAPER_SPACE
  0
ENDTAB
  0
ENDSEC
  0
SECTION
  2
BLOCKS
  0
BLOCK
  5
20
330
1F
100
AcDbEntity
  8
0
100
AcDbBlockBegin
  2
*MODEL_SPACE
 70
     0
 71
     0
 10
0.0
 20
0.0
 30
0.0
  3
*MODEL_SPACE
  1

  0
ENDBLK
  5
21
330
1F
100
AcDbEntity
  8
0
100
AcDbBlockEnd
  0
BLOCK
  5
1C
330
1B
100
AcDbEntity
 67
     1
  8
0
100
AcDbBlockBegin
  2
*PAPER_SPACE
 70
     0
 71
     0
 10
0.0
 20
0.0
 30
0.0
  3
*PAPER_SPACE
  1

  0
ENDBLK
  5
1D
330
1B
100
AcDbEntity
 67
     1
  8
0
100
AcDbBlockEnd
  0
ENDSEC
  0
SECTION
  2
ENTITIES
  0
ARC
  5
d9ce4ff2
330
1F
  8
Layer
100
AcDbEntity
  6
CONTINUOUS
100
AcDbCircle
 10
-1.0599803002516643
 20
0.8971159946011608
 30
0.0
 40
0.7155642924283012
100
AcDbArc
 50
91.41705293708314
 51
99.67926448887404
  0
ARC
  5
11b9d5b9
330
1F
  8
Layer
100
AcDbEntity
  6
CONTINUOUS
100
AcDbCircle
 10
-1.1088552722116856
 20
1.183670744617804
 30
0.0
 40
0.4248713485146352
100
AcDbArc
 50
99.67926448887323
 51
114.86214976051808
  0
ARC
  5
c5f5baed
330
1F
  8
Layer
100
AcDbEntity
  6
CONTINUOUS
100
AcDbCircle
 10
-1.1047733127795836
 20
1.1748616824568012
 30
0.0
 40
0.43458020884743115
100
AcDbArc
 50
114.86214976050508
 51
122.27261428555133
  0
ARC
  5
0f075196
330
1F
  8
Layer
100
AcDbEntity
  6
CONTINUOUS
100
AcDbCircle
 10
-1.1127913034730137
 20
1.1875583215389718
 30
0.0
 40
0.4195637905413625
100
AcDbArc
 50
122.27261428557206
 51
129.81471377970126
  0
ARC
  5
c9624d0a
330
1F
  8
Layer
100
AcDbEntity
  6
CONTINUOUS
100
AcDbCircle
 10
-1.2453676231503634
 20
1.3465982963379894
 30
0.0
 40
0.21251260333572733
100
AcDbArc
 50
129.81471377968955
 51
145.01201864701875
  0
ARC
  5
23d8a599
330
1F
  8
Layer
100
AcDbEntity
  6
CONTINUOUS
100
AcDbCircle
 10
-1.087941287583079
 20
1.2364163953993526
 30
0.0
 40
0.40466645425887404
100
AcDbArc
 50
145.01201864701767
 51
156.00975712263113
  0
ARC
  5
754b8d22
330
1F
  8
Layer
100
AcDbEntity
  6
CONTINUOUS
100
AcDbCircle
 10
-0.9248935389680142
 20
1.1638561281811577
 30
0.0
 40
0.5831309064817668
100
AcDbArc
 50
156.00975712263656
 51
163.82433396402922
  0
ARC
  5
37002af6
330
1F
  8
Layer
100
AcDbEntity
  6
CONTINUOUS
100
AcDbCircle
 10
-0.6758823617595399
 20
1.091626362929805
 30
0.0
 40
0.8424062530980921
100
AcDbArc
 50
163.82433396402607
 51
175.29549964513075
  0
ARC
  5
7855def8
330
1F
  8
Layer
100
AcDbEntity
  6
CONTINUOUS
100
AcDbCircle
 10
-0.7298537165087616
 20
1.096067883928682
 30
0.0
 40
0.7882524513640513
100
AcDbArc
 50
175.29549964512182
 51
178.4552014291917
  0
ARC
  5
dc433cf3
330
1F
  8
Layer
100
AcDbEntity
  6
CONTINUOUS
100
AcDbCircle
 10
-2.94272911061807
 20
1.1557454963320115
 30
0.0
 40
1.4254275000464025
100
AcDbArc
 50
-4.789797845212323
 51
-1.5447985708021832
  0
ARC
  5
bc943075
330
1F
  8
Layer
100
AcDbEntity
  6
CONTINUOUS
100
AcDbCircle
 10
-1.9032235348916167
 20
1.068642172273479
 30
0.0
 40
0.38227898184373005
100
AcDbArc
 50
-13.466829824453143
 51
-4.789797845218971
  0
ARC
  5
7a7f2345
330
1F
  8
Layer
100
AcDbEntity
  6
CONTINUOUS
100
AcDbCircle
 10
-1.632852215920904
 20
1.0038972860743387
 30
0.0
 40
0.10426360383218479
100
AcDbArc
 50
-30.124356536326484
 51
-13.466829824443943
  0
ARC
  5
f8dd13ec
330
1F
  8
Layer
100
AcDbEntity
  6
CONTINUOUS
100
AcDbCircle
 10
-1.60192401936786
 20
0.9859512676750727
 30
0.0
 40
0.06850590650125322
100
AcDbArc
 50
-46.2789451886431
 51
-30.124356536330964
  0
ARC
  5
9ce7a19d
330
1F
  8
Layer
100
AcDbEntity
  6
CONTINUOUS
100
AcDbCircle
 10
-1.5959739053936455
 20
0.9797294081530868
 30
0.0
 40
0.05989687681043026
100
AcDbArc
 50
-79.07802305827796
 51
-46.27894518864363
  0
ARC
  5
89c57321
330
1F
  8
Layer
100
AcDbEntity
  6
CONTINUOUS
100
AcDbCircle
 10
-1.6009191785174446
 20
1.0053569043655914
 30
0.0
 40
0.08599715053295875
100
AcDbArc
 50
-98.45335959280088
 51
-79.07802305827765
  0
ARC
  5
e96684fd
330
1F
  8
Layer
100
AcDbEntity
  6
CONTINUOUS
100
AcDbCircle
 10
-1.5755394640830997
 20
1.1761273502265113
 30
0.0
 40
0.25864324832930696
100
AcDbArc
 50
-116.58958084061622
 51
-98.45335959279736
  0
ARC
  5
00073cfd
330
1F
  8
Layer
100
AcDbEntity
  6
CONTINUOUS
100
AcDbCircle
 10
-1.5905025837051339
 20
1.1462331138897102
 30
0.0
 40
0.22521331690574853
100
AcDbArc
 50
-136.71419906929353
 51
-116.58958084061906
  0
ARC
  5
90f45c68
330
1F
  8
Layer
100
AcDbEntity
  6
CONTINUOUS
100
AcDbCircle
 10
-1.4835966254709558
 20
1.2469261838122512
 30
0.0
 40
0.37207372081501716
100
AcDbArc
 50
-147.7836817062978
 51
-136.71419906929074
  0
ARC
  5
05d05bdf
330
1F
  8
Layer
100
AcDbEntity
  6
CONTINUOUS
100
AcDbCircle
 10
-1.3580997107207151
 20
1.3260057344915392
 30
0.0
 40
0.5204079749421987
100
AcDbArc
 50
-152.93243471907806
 51
-147.78368170629668
  0
ARC
  5
9139c160
330
1F
  8
Layer
100
AcDbEntity
  6
CONTINUOUS
100
AcDbCircle
 10
-1.233596319368772
 20
1.389628427739808
 30
0.0
 40
0.6602255044379612
100
AcDbArc
 50
-161.13817452410126
 51
-152.93243471908494
  0
ARC
  5
f3b8004a
330
1F
  8
Layer
100
AcDbEntity
  6
CONTINUOUS
100
AcDbCircle
 10
-1.4381133377848778
 20
1.3197588036818626
 30
0.0
 40
0.4441029114778258
100
AcDbArc
 50
-166.8561586103561
 51
-161.13817452409359
  0
ARC
  5
59be679d
330
1F
  8
Layer
100
AcDbEntity
  6
CONTINUOUS
100
AcDbCircle
 10
-1.291895413037077
 20
1.3539027429354067
 30
0.0
 40
0.5942544685969687
100
AcDbArc
 50
-171.7987300109188
 51
-166.8561586103604
  0
ARC
  5
ea5ba41a
330
1F
  8
Layer
100
AcDbEntity
  6
CONTINUOUS
100
AcDbCircle
 10
-0.11991456253381938
 20
1.5228142804691291
 30
0.0
 40
1.7783449302840586
100
AcDbArc
 50
-173.08261738773382
 51
-171.79873001091812
  0
ARC
  5
03aef370
330
1F
  8
Layer
100
AcDbEntity
  6
CONTINUOUS
100
AcDbCircle
 10
-2.3232772750049966
 20
1.2554998160107154
 30
0.0
 40
0.4411739963342825
100
AcDbArc
 50
6.917382612249291
 51
12.094305289442776
  0
ARC
  5
0c983b90
330
1F
  8
Layer
100
AcDbEntity
  6
CONTINUOUS
100
AcDbCircle
 10
-2.2022453834944944
 20
1.281434223155077
 30
0.0
 40
0.31739470793537694
100
AcDbArc
 50
12.094305289461209
 51
20.336713795595152
  0
ARC
  5
b7a4b6ff
330
1F
  8
Layer
100
AcDbEntity
  6
CONTINUOUS
100
AcDbCircle
 10
-1.949810315165271
 20
1.3749967220355983
 30
0.0
 40
0.04817842886008138
100
AcDbArc
 50
20.33671379560065
 51
37.54689569541841
  0
ARC
  5
69e0e2f2
330
1F
  8
Layer
100
AcDbEntity
  6
CONTINUOUS
100
AcDbCircle
 10
-1.9266451384889312
 20
1.3928021302196751
 30
0.0
 40
0.018961003048630767
100
AcDbArc
 50
37.546895695402114
 51
57.773111918103425
  0
ARC
  5
f940d1b7
330
1F
  8
Layer
100
AcDbEntity
  6
CONTINUOUS
100
AcDbCircle
 10
-1.9209876741002725
 20
1.4017766882853369
 30
0.0
 40
0.008352063620823797
100
AcDbArc
 50
57.773111918099545
 51
125.1309649772811
  0
ARC
  5
59a42a28
330
1F
  8
Layer
100
AcDbEntity
  6
CONTINUOUS
100
AcDbCircle
 10
-1.9143948300632452
 20
1.392406788289866
 30
0.0
 40
0.01980896627475657
100
AcDbArc
 50
125.13096497727499
 51
152.16587662032848
  0
ARC
  5
a3f538a9
330
1F
  8
Layer
100
AcDbEntity
  6
CONTINUOUS
100
AcDbCircle
 10
-1.8049280028876977
 20
1.3346081338882076
 30
0.0
 40
0.14359778120778477
100
AcDbArc
 50
152.16587662034462
 51
162.12664222913855
  0
ARC
  5
c547696e
330
1F
  8
Layer
100
AcDbEntity
  6
CONTINUOUS
100
AcDbCircle
 10
-1.6144232045624523
 20
1.2731745709648252
 30
0.0
 40
0.34376311496566514
100
AcDbArc
 50
162.12664222913097
 51
167.79808098194025
  0
ARC
  5
652ae022
330
1F
  8
Layer
100
AcDbEntity
  6
CONTINUOUS
100
AcDbCircle
 10
-1.2249388149973663
 20
1.1889514102653762
 30
0.0
 40
0.7422497904180482
100
AcDbArc
 50
167.79808098194792
 51
174.30007979073812
  0
ARC
  5
d9ba7f08
330
1F
  8
Layer
100
AcDbEntity
  6
CONTINUOUS
100
AcDbCircle
 10
-1.3342248826941172
 20
1.1998594562806137
 30
0.0
 40
0.6324206956367044
100
AcDbArc
 50
174.3000797907348
 51
-173.44822094877426
  0
ARC
  5
960f82e4
330
1F
  8
Layer
100
AcDbEntity
  6
CONTINUOUS
100
AcDbCircle
 10
-1.3742591043101324
 20
1.1952614799221823
 30
0.0
 40
0.5921232976190544
100
AcDbArc
 50
-173.44822094877478
 51
-149.68892686727236
  0
ARC
  5
410a00ba
330
1F
  8
Layer
100
AcDbEntity
  6
CONTINUOUS
100
AcDbCircle
 10
-1.2818161100618632
 20
1.2493047732753095
 30
0.0
 40
0.6992045039161339
100
AcDbArc
 50
-149.68892686727602
 51
-143.86875748239396
  0
ARC
  5
2df6269c
330
1F
  8
Layer
100
AcDbEntity
  6
CONTINUOUS
100
AcDbCircle
 10
0.43857435124259303
 20
2.505272586759305
 30
0.0
 40
2.8292745703353424
100
AcDbArc
 50
-143.8687574823847
 51
-142.0277291136442
  0
ARC
  5
b180be0a
330
1F
  8
Layer
100
AcDbEntity
  6
CONTINUOUS
100
AcDbCircle
 10
29.009650306646737
 20
24.805184263942742
 30
0.0
 40
39.07279043261966
100
AcDbArc
 50
-142.02772911363692
 51
-141.86183461377743
  0
ARC
  5
849332c4
330
1F
  8
Layer
100
AcDbEntity
  6
CONTINUOUS
100
AcDbCircle
 10
-2.7900034813943106
 20
-0.16315234247265575
 30
0.0
 40
1.357839217814137
100
AcDbArc
 50
34.44378288980678
 51
38.13816538623593
  0
ARC
  5
4e5878e8
330
1F
  8
Layer
100
AcDbEntity
  6
CONTINUOUS
100
AcDbCircle
 10
-2.4159667810014858
 20
0.09337597657623209
 30
0.0
 40
0.9042863193394387
100
AcDbArc
 50
27.76577602958348
 51
34.44378288980092
  0
ARC
  5
7556ed60
330
1F
  8
Layer
100
AcDbEntity
  6
CONTINUOUS
100
AcDbCircle
 10
-2.0117613784986457
 20
0.30618084990499117
 30
0.0
 40
0.44748447879481934
100
AcDbArc
 50
18.267113549925025
 51
27.765776029585897
  0
ARC
  5
15b3c090
330
1F
  8
Layer
100
AcDbEntity
  6
CONTINUOUS
100
AcDbCircle
 10
-1.9274300617591473
 20
0.3340170781352556
 30
0.0
 40
0.3586777978237066
100
AcDbArc
 50
6.809508289944601
 51
18.267113549929686
  0
ARC
  5
6b245624
330
1F
  8
Layer
100
AcDbEntity
  6
CONTINUOUS
100
AcDbCircle
 10
-1.843163836863854
 20
0.3440794002885721
 30
0.0
 40
0.2738129229624234
100
AcDbArc
 50
-18.651923630193835
 51
6.809508289942412
  0
ARC
  5
06f3e8e4
330
1F
  8
Layer
100
AcDbEntity
  6
CONTINUOUS
100
AcDbCircle
 10
-1.750612834719698
 20
0.31283914586188355
 30
0.0
 40
0.17613159672996573
100
AcDbArc
 50
-49.86996981552331
 51
-18.65192363019662
  0
ARC
  5
6326c2b9
330
1F
  8
Layer
100
AcDbEntity
  6
CONTINUOUS
100
AcDbCircle
 10
-1.7719727187453962
 20
0.3381778570308187
 30
0.0
 40
0.2092721297566688
100
AcDbArc
 50
-101.51197090417438
 51
-49.86996981551888
  0
ARC
  5
5e54c0b9
330
1F
  8
Layer
100
AcDbEntity
  6
CONTINUOUS
100
AcDbCircle
 10
-1.7572718874621693
 20
0.4103575561559307
 30
0.0
 40
0.2829336760763709
100
AcDbArc
 50
-106.8974221301582
 51
-101.51197090418482
  0
ARC
  5
d3eaae5a
330
1F
  8
Layer
100
AcDbEntity
  6
CONTINUOUS
100
AcDbCircle
 10
-1.8479330080825143
 20
0.11190839591117574
 30
0.0
 40
0.02898192155051316
100
AcDbArc
 50
73.1025778698676
 51
101.75796132372325
  0
ARC
  5
670889b5
330
1F
  8
Layer
100
AcDbEntity
  6
CONTINUOUS
100
AcDbCircle
 10
-1.8513344602178987
 20
0.12825011819391818
 30
0.0
 40
0.012289954506584766
100
AcDbArc
 50
101.75796132368862
 51
136.93667379466197
  0
ARC
  5
34cda48f
330
1F
  8
Layer
100
AcDbEntity
  6
CONTINUOUS
100
AcDbCircle
 10
-1.852685614713324
 20
0.1295128849973819
 30
0.0
 40
0.010440576646211725
100
AcDbArc
 50
136.93667379469707
 51
175.21533558882857
  0
ARC
  5
035e6c87
330
1F
  8
Layer
100
AcDbEntity
  6
CONTINUOUS
100
AcDbCircle
 10
-1.8405222972512443
 20
0.1284947811667969
 30
0.0
 40
0.022646428812004255
100
AcDbArc
 50
175.215335588809
 51
-154.09105173326225
  0
ARC
  5
af91ebc8
330
1F
  8
Layer
100
AcDbEntity
  6
CONTINUOUS
100
AcDbCircle
 10
-1.748408442658514
 20
0.1732406451016677
 30
0.0
 40
0.1250532378981614
100
AcDbArc
 50
-154.09105173327708
 51
-138.07790732625452
  0
ARC
  5
7c20ded9
330
1F
  8
Layer
100
AcDbEntity
  6
CONTINUOUS
100
AcDbCircle
 10
-1.6909414534338554
 20
0.22484283707120678
 30
0.0
 40
0.20228821097777228
100
AcDbArc
 50
-138.07790732624773
 51
-123.35059345002752
  0
ARC
  5
089b6a81
330
1F
  8
Layer
100
AcDbEntity
  6
CONTINUOUS
100
AcDbCircle
 10
-1.624786130133393
 20
0.3253611509274146
 30
0.0
 40
0.3226229865893293
100
AcDbArc
 50
-123.35059345002779
 51
-108.08153078553879
  0
ARC
  5
6ab468b8
330
1F
  8
Layer
100
AcDbEntity
  6
CONTINUOUS
100
AcDbCircle
 10
-1.5986402402290274
 20
0.405442007653394
 30
0.0
 40
0.40686401681129464
100
AcDbArc
 50
-108.08153078554075
 51
-98.79588290970382
  0
ARC
  5
7fc058ec
330
1F
  8
Layer
100
AcDbEntity
  6
CONTINUOUS
100
AcDbCircle
 10
-1.543509940297313
 20
0.7617314190193705
 30
0.0
 40
0.76739348110246
100
AcDbArc
 50
-98.79588290970713
 51
-92.03810100063258
  0
ARC
  5
9755b700
330
1F
  8
Layer
100
AcDbEntity
  6
CONTINUOUS
100
AcDbCircle
 10
-1.5351788561835977
 20
0.9958388607484945
 30
0.0
 40
1.001649113340972
100
AcDbArc
 50
-92.03810100063612
 51
-90.22088380335221
  0
ARC
  5
927a438d
330
1F
  8
Layer
100
AcDbEntity
  6
CONTINUOUS
100
AcDbCircle
 10
-1.5330933424614543
 20
1.5368044753963228
 30
0.0
 40
1.5426187479775086
100
AcDbArc
 50
-90.22088380334085
 51
-88.7565875299783
  0
ARC
  5
77e9805d
330
1F
  8
Layer
100
AcDbEntity
  6
CONTINUOUS
100
AcDbCircle
 10
-1.6534440942045892
 20
7.0816319158881305
 30
0.0
 40
7.088752144162284
100
AcDbArc
 50
-88.75658752998997
 51
-88.3536862927316
  0
ARC
  5
35e18838
330
1F
  8
Layer
100
AcDbEntity
  6
CONTINUOUS
100
AcDbCircle
 10
-1.4441927572507018
 20
-0.19882667452176683
 30
0.0
 40
0.1947129246555972
100
AcDbArc
 50
79.99330003152144
 51
91.64631370726906
  0
ARC
  5
faae8240
330
1F
  8
Layer
100
AcDbEntity
  6
CONTINUOUS
100
AcDbCircle
 10
-1.4430506124832552
 20
-0.1923536759877471
 30
0.0
 40
0.1881399341116189
100
AcDbArc
 50
34.515417378432716
 51
79.99330003152133
  0
ARC
  5
0f892d25
330
1F
  8
Layer
100
AcDbEntity
  6
CONTINUOUS
100
AcDbCircle
 10
-1.4755217904684619
 20
-0.2146833653662119
 30
0.0
 40
0.22754795902388397
100
AcDbArc
 50
4.526276824860668
 51
34.51541737843397
  0
ARC
  5
dc12b6a0
330
1F
  8
Layer
100
AcDbEntity
  6
CONTINUOUS
100
AcDbCircle
 10
-1.4607775045611278
 20
-0.21351616078808777
 30
0.0
 40
0.2127575454581852
100
AcDbArc
 50
-16.78227936279432
 51
4.526276824859782
  0
ARC
  5
208992c6
330
1F
  8
Layer
100
AcDbEntity
  6
CONTINUOUS
100
AcDbCircle
 10
-1.4148563868786943
 20
-0.22736506780056454
 30
0.0
 40
0.16479358737876743
100
AcDbArc
 50
-50.30968851361825
 51
-16.782279362793048
  0
ARC
  5
a4a15a5f
330
1F
  8
Layer
100
AcDbEntity
  6
CONTINUOUS
100
AcDbCircle
 10
-1.5976896978887503
 20
-0.007065493678141133
 30
0.0
 40
0.45108002082160636
100
AcDbArc
 50
-55.08762763722521
 51
-50.309688513624614
  0
ARC
  5
71654cca
330
1F
  8
Layer
100
AcDbEntity
  6
CONTINUOUS
100
AcDbCircle
 10
-1.5062801940694779
 20
-0.13803766448400667
 30
0.0
 40
0.2913633751202694
100
AcDbArc
 50
-63.43236820556239
 51
-55.087627637221885
  0
ARC
  5
6961d98b
330
1F
  8
Layer
100
AcDbEntity
  6
CONTINUOUS
100
AcDbCircle
 10
-0.5719191233192118
 20
-2.0065494055641633
 30
0.0
 40
1.7977433088688417
100
AcDbArc
 50
116.5676317944417
 51
117.94166221619008
  0
ARC
  5
3fff712d
330
1F
  8
Layer
100
AcDbEntity
  6
CONTINUOUS
100
AcDbCircle
 10
-1.3861781107954148
 20
-0.4713821714614175
 30
0.0
 40
0.0599987547561131
100
AcDbArc
 50
117.94166221620347
 51
125.46812578146897
  0
ARC
  5
688c364f
330
1F
  8
Layer
100
AcDbEntity
  6
CONTINUOUS
100
AcDbCircle
 10
-1.3973604881944919
 20
-0.45568659440559567
 30
0.0
 40
0.04072709931578788
100
AcDbArc
 50
125.46812578141287
 51
143.1394469237732
  0
ARC
  5
b14f2ae5
330
1F
  8
Layer
100
AcDbEntity
  6
CONTINUOUS
100
AcDbCircle
 10
-1.4196875868592262
 20
-0.43894695940624007
 30
0.0
 40
0.012821639013251375
100
AcDbArc
 50
143.13944692381315
 51
-140.40879852700456
  0
ARC
  5
33dd69b1
330
1F
  8
Layer
100
AcDbEntity
  6
CONTINUOUS
100
AcDbCircle
 10
-1.4122530823937431
 20
-0.4327985251849309
 30
0.0
 40
0.02246918274318869
100
AcDbArc
 50
-140.40879852706627
 51
-111.48653352475165
  0
ARC
  5
7bd9fe90
330
1F
  8
Layer
100
AcDbEntity
  6
CONTINUOUS
100
AcDbCircle
 10
-1.383122989995946
 20
-0.358796476086648
 30
0.0
 40
0.10199820608592075
100
AcDbArc
 50
-111.48653352469516
 51
-98.02457395850512
  0
ARC
  5
2fbc33d7
330
1F
  8
Layer
100
AcDbEntity
  6
CONTINUOUS
100
AcDbCircle
 10
-1.3680527898780006
 20
-0.25189911880020466
 30
0.0
 40
0.20995262205127369
100
AcDbArc
 50
-98.02457395853315
 51
-91.04658722375372
  0
ARC
  5
294c97f3
330
1F
  8
Layer
100
AcDbEntity
  6
CONTINUOUS
100
AcDbCircle
 10
-1.3615133359696174
 20
0.10606572871229192
 30
0.0
 40
0.567977197341944
100
AcDbArc
 50
-91.0465872237359
 51
-85.63847000089035
  0
ARC
  5
e9517d44
330
1F
  8
Layer
100
AcDbEntity
  6
CONTINUOUS
100
AcDbCircle
 10
-1.3504271997486306
 20
-0.03928726178877162
 30
0.0
 40
0.42220204766302066
100
AcDbArc
 50
-85.63847000089518
 51
-73.53434070956439
  0
ARC
  5
969deeb6
330
1F
  8
Layer
100
AcDbEntity
  6
CONTINUOUS
100
AcDbCircle
 10
-1.3407631472393056
 20
-0.07198450814875579
 30
0.0
 40
0.3881065372484733
100
AcDbArc
 50
-73.5343407095603
 51
-60.90765023009246
  0
ARC
  5
944ec5ef
330
1F
  8
Layer
100
AcDbEntity
  6
CONTINUOUS
100
AcDbCircle
 10
-1.373673973989372
 20
-0.012836839417391888
 30
0.0
 40
0.45579382729415385
100
AcDbArc
 50
-60.90765023009679
 51
-52.73043419324667
  0
ARC
  5
eb5c4151
330
1F
  8
Layer
100
AcDbEntity
  6
CONTINUOUS
100
AcDbCircle
 10
-1.6303025575128194
 20
0.3244077948720574
 30
0.0
 40
0.8795769950088179
100
AcDbArc
 50
-52.73043419323941
 51
-46.846402920513356
  0
ARC
  5
91de307d
330
1F
  8
Layer
100
AcDbEntity
  6
CONTINUOUS
100
AcDbCircle
 10
-2.543256016111176
 20
1.2981836919560497
 30
0.0
 40
2.2143891598127037
100
AcDbArc
 50
-46.84640292052613
 51
-45.70690686850552
  0
ARC
  5
d69a094d
330
1F
  8
Layer
100
AcDbEntity
  6
CONTINUOUS
100
AcDbCircle
 10
-0.5626037396254708
 20
-0.7319556504132991
 30
0.0
 40
0.6218846615564284
100
AcDbArc
 50
130.23482669195337
 51
134.29309313150515
  0
ARC
  5
0abc3876
330
1F
  8
Layer
100
AcDbEntity
  6
CONTINUOUS
100
AcDbCircle
 10
-0.6704643156404253
 20
-0.6044771499621227
 30
0.0
 40
0.45489762033598397
100
AcDbArc
 50
121.91434509828693
 51
130.2348266919517
  0
ARC
  5
752d39c1
330
1F
  8
Layer
100
AcDbEntity
  6
CONTINUOUS
100
AcDbCircle
 10
-0.8078375085917706
 20
-0.3839010035785755
 30
0.0
 40
0.1950414476268033
100
AcDbArc
 50
109.19242491684764
 51
121.91434509828919
  0
ARC
  5
0433b906
330
1F
  8
Layer
100
AcDbEntity
  6
CONTINUOUS
100
AcDbCircle
 10
-0.8246196235210983
 20
-0.3356888111743108
 30
0.0
 40
0.1439919140547226
100
AcDbArc
 50
93.23605960235031
 51
109.19242491683573
  0
ARC
  5
2c3aab3e
330
1F
  8
Layer
100
AcDbEntity
  6
CONTINUOUS
100
AcDbCircle
 10
-0.8257093362183481
 20
-0.31641551518836764
 30
0.0
 40
0.12468783645634127
100
AcDbArc
 50
69.75700519953917
 51
93.23605960235554
  0
ARC
  5
bbe42193
330
1F
  8
Layer
100
AcDbEntity
  6
CONTINUOUS
100
AcDbCircle
 10
-0.8358784841837978
 20
-0.3439905788896671
 30
0.0
 40
0.15407823809486845
100
AcDbArc
 50
53.99141230271052
 51
69.75700519955292
  0
ARC
  5
37d55e1b
330
1F
  8
Layer
100
AcDbEntity
  6
CONTINUOUS
100
AcDbCircle
 10
-0.9273705150397777
 20
-0.46987887248653837
 30
0.0
 40
0.30970167519508046
100
AcDbArc
 50
42.88898593996884
 51
53.991412302699516
  0
ARC
  5
2eb534a2
330
1F
  8
Layer
100
AcDbEntity
  6
CONTINUOUS
100
AcDbCircle
 10
-0.9797653487665495
 20
-0.5185483906402062
 30
0.0
 40
0.38121349658543663
100
AcDbArc
 50
32.4137730634469
 51
42.88898593997082
  0
ARC
  5
502955b9
330
1F
  8
Layer
100
AcDbEntity
  6
CONTINUOUS
100
AcDbCircle
 10
-0.8833498774546955
 20
-0.45732875585243504
 30
0.0
 40
0.2670040977084837
100
AcDbArc
 50
7.740361437775563
 51
32.413773063450236
  0
ARC
  5
0679dacf
330
1F
  8
Layer
100
AcDbEntity
  6
CONTINUOUS
100
AcDbCircle
 10
-0.8676668257857796
 20
-0.45519707327320247
 30
0.0
 40
0.2511768370399886
100
AcDbArc
 50
-5.539430700299156
 51
7.740361437766157
  0
ARC
  5
1b32abd9
330
1F
  8
Layer
100
AcDbEntity
  6
CONTINUOUS
100
AcDbCircle
 10
-0.8779688829940708
 20
-0.45419794195104024
 30
0.0
 40
0.26152723056496313
100
AcDbArc
 50
-18.55262579417789
 51
-5.5394307002877055
  0
ARC
  5
e6a6ca8c
330
1F
  8
Layer
100
AcDbEntity
  6
CONTINUOUS
100
AcDbCircle
 10
0.6746139240841582
 20
-0.9752710578738142
 30
0.0
 40
1.376163388866064
100
AcDbArc
 50
161.4473742058048
 51
162.96007289129858
  0
ARC
  5
2b6ecd01
330
1F
  8
Layer
100
AcDbEntity
  6
CONTINUOUS
100
AcDbCircle
 10
-0.5322696525426962
 20
-0.6053698831684666
 30
0.0
 40
0.11386594112245732
100
AcDbArc
 50
162.96007289131543
 51
173.11512422411127
  0
ARC
  5
9100f132
330
1F
  8
Layer
100
AcDbEntity
  6
CONTINUOUS
100
AcDbCircle
 10
-0.5948439691454448
 20
-0.5978143177621049
 30
0.0
 40
0.0508371249594446
100
AcDbArc
 50
173.11512422412744
 51
-169.78842404130344
  0
ARC
  5
c9fe05a2
330
1F
  8
Layer
100
AcDbEntity
  6
CONTINUOUS
100
AcDbCircle
 10
-0.6372832559022359
 20
-0.6054592029792729
 30
0.0
 40
0.007714771934490118
100
AcDbArc
 50
-169.78842404133383
 51
-124.92695838327221
  0
ARC
  5
38322ebc
330
1F
  8
Layer
100
AcDbEntity
  6
CONTINUOUS
100
AcDbCircle
 10
-0.6377026237843724
 20
-0.6060597503750615
 30
0.0
 40
0.006982292176983919
100
AcDbArc
 50
-124.92695838326101
 51
-80.59757868119402
  0
ARC
  5
e886a9f8
330
1F
  8
Layer
100
AcDbEntity
  6
CONTINUOUS
100
AcDbCircle
 10
-0.6420931265010252
 20
-0.5795458271753657
 30
0.0
 40
0.03385727380570956
100
AcDbArc
 50
-80.59757868121491
 51
-60.867631037678166
  0
ARC
  5
5b51f5ed
330
1F
  8
Layer
100
AcDbEntity
  6
CONTINUOUS
100
AcDbCircle
 10
-0.670636397277329
 20
-0.5283317990152907
 30
0.0
 40
0.09248828084968191
100
AcDbArc
 50
-60.86763103765945
 51
-43.748512835291955
  0
ARC
  5
ef4ec655
330
1F
  8
Layer
100
AcDbEntity
  6
CONTINUOUS
100
AcDbCircle
 10
-0.7773341569906389
 20
-0.4261962219655142
 30
0.0
 40
0.24019098233861863
100
AcDbArc
 50
-43.748512835307615
 51
-33.14989770001968
  0
ARC
  5
5ade5a16
330
1F
  8
Layer
100
AcDbEntity
  6
CONTINUOUS
100
AcDbCircle
 10
-0.8840638292778071
 20
-0.3564875002750618
 30
0.0
 40
0.36766854438874297
100
AcDbArc
 50
-33.149897700004466
 51
-24.014149734459053
  0
ARC
  5
9a4673d3
330
1F
  8
Layer
100
AcDbEntity
  6
CONTINUOUS
100
AcDbCircle
 10
-1.2639913867846913
 20
-0.18722041513190457
 30
0.0
 40
0.783596777460276
100
AcDbArc
 50
-24.01414973446281
 51
-13.464436366216823
  0
ARC
  5
436c0a92
330
1F
  8
Layer
100
AcDbEntity
  6
CONTINUOUS
100
AcDbCircle
 10
-1.136852943429108
 20
-0.21766020362253236
 30
0.0
 40
0.6528651267316363
100
AcDbArc
 50
-13.464436366215208
 51
-6.257530208319656
  0
ARC
  5
3e1b5617
330
1F
  8
Layer
100
AcDbEntity
  6
CONTINUOUS
100
AcDbCircle
 10
0.27205342797013254
 20
-0.3721479381558914
 30
0.0
 40
0.7644857908221737
100
AcDbArc
 50
167.58892555728139
 51
173.74246979167913
  0
ARC
  5
45c97978
330
1F
  8
Layer
100
AcDbEntity
  6
CONTINUOUS
100
AcDbCircle
 10
-0.06189610279619795
 20
-0.2986567011674479
 30
0.0
 40
0.42254537055404473
100
AcDbArc
 50
158.47823854959086
 51
167.58892555728505
  0
ARC
  5
c762ac80
330
1F
  8
Layer
100
AcDbEntity
  6
CONTINUOUS
100
AcDbCircle
 10
-0.3068829648143807
 20
-0.20204630766883436
 30
0.0
 40
0.15919744348137327
100
AcDbArc
 50
143.6092479607874
 51
158.4782385495779
  0
ARC
  5
47222f3d
330
1F
  8
Layer
100
AcDbEntity
  6
CONTINUOUS
100
AcDbCircle
 10
-0.3346584167786668
 20
-0.18157539757408636
 30
0.0
 40
0.124693329350916
100
AcDbArc
 50
131.58591422025316
 51
143.60924796080835
  0
ARC
  5
e5f50f4f
330
1F
  8
Layer
100
AcDbEntity
  6
CONTINUOUS
100
AcDbCircle
 10
-0.38348650480033086
 20
-0.1265517583462148
 30
0.0
 40
0.05112850722967152
100
AcDbArc
 50
120.2864152552391
 51
131.58591422024327
  0
ARC
  5
55b7fe15
330
1F
  8
Layer
100
AcDbEntity
  6
CONTINUOUS
100
AcDbCircle
 10
-0.4074034867272074
 20
-0.08560046261566345
 30
0.0
 40
0.003704561310952141
100
AcDbArc
 50
40.40733104562395
 51
120.28641525513845
  0
ARC
  5
31bafb5b
330
1F
  8
Layer
100
AcDbEntity
  6
CONTINUOUS
100
AcDbCircle
 10
-0.43522280787636203
 20
-0.10928269908646615
 30
0.0
 40
0.04023896911317091
100
AcDbArc
 50
28.535004679133344
 51
40.407331045728476
  0
ARC
  5
5917d9c9
330
1F
  8
Layer
100
AcDbEntity
  6
CONTINUOUS
100
AcDbCircle
 10
-0.4852879729053523
 20
-0.13650548321790024
 30
0.0
 40
0.09722669345137104
100
AcDbArc
 50
21.236553009005643
 51
28.535004679115218
  0
ARC
  5
6c973cc5
330
1F
  8
Layer
100
AcDbEntity
  6
CONTINUOUS
100
AcDbCircle
 10
0.12260956185546301
 20
0.09972870859703264
 30
0.0
 40
0.5549588676819089
100
AcDbArc
 50
-158.7634469909939
 51
-153.6507496645393
  0
ARC
  5
93e8e6fd
330
1F
  8
Layer
100
AcDbEntity
  6
CONTINUOUS
100
AcDbCircle
 10
-0.11638719532275443
 20
-0.018646572465300437
 30
0.0
 40
0.2882527426898305
100
AcDbArc
 50
-153.6507496645449
 51
-147.19433273518524
  0
ARC
  5
cda0fc35
330
1F
  8
Layer
100
AcDbEntity
  6
CONTINUOUS
100
AcDbCircle
 10
-0.2082551932757033
 20
-0.07786431876424293
 30
0.0
 40
0.17895283178131702
100
AcDbArc
 50
-147.1943327351808
 51
-138.9974329350254
  0
ARC
  5
d4f278df
330
1F
  8
Layer
100
AcDbEntity
  6
CONTINUOUS
100
AcDbCircle
 10
0.004434971455391734
 20
0.10704115158205552
 30
0.0
 40
0.46078104033632705
100
AcDbArc
 50
-138.99743293502422
 51
-124.95812819158841
  0
ARC
  5
9f529238
330
1F
  8
Layer
100
AcDbEntity
  6
CONTINUOUS
100
AcDbCircle
 10
0.0762747738647569
 20
0.20979877011167392
 30
0.0
 40
0.5861608049560424
100
AcDbArc
 50
-124.9581281915939
 51
-115.93647257840134
  0
ARC
  5
0e812921
330
1F
  8
Layer
100
AcDbEntity
  6
CONTINUOUS
100
AcDbCircle
 10
0.36825023569529236
 20
0.8101256366203959
 30
0.0
 40
1.2537250467810033
100
AcDbArc
 50
-115.9364725784008
 51
-112.9983830940031
  0
ARC
  5
11aea2bf
330
1F
  8
Layer
100
AcDbEntity
  6
CONTINUOUS
100
AcDbCircle
 10
-0.5085466839364225
 20
-1.2556405425494572
 30
0.0
 40
0.9904145979999708
100
AcDbArc
 50
63.28216485702709
 51
67.00161690599907
  0
ARC
  5
e6ecc1af
330
1F
  8
Layer
100
AcDbEntity
  6
CONTINUOUS
100
AcDbCircle
 10
-0.2905080287606121
 20
-0.8224549083889172
 30
0.0
 40
0.505450012907466
100
AcDbArc
 50
56.877836347538256
 51
63.28216485702634
  0
ARC
  5
c324df95
330
1F
  8
Layer
100
AcDbEntity
  6
CONTINUOUS
100
AcDbCircle
 10
-0.2070415277642117
 20
-0.6945257540440817
 30
0.0
 40
0.35270013460975064
100
AcDbArc
 50
41.7708931843888
 51
56.87783634754019
  0
ARC
  5
cc43b26c
330
1F
  8
Layer
100
AcDbEntity
  6
CONTINUOUS
100
AcDbCircle
 10
-0.14357157951877708
 20
-0.637835063791029
 30
0.0
 40
0.2675986146959107
100
AcDbArc
 50
35.108620761597976
 51
41.77089318440366
  0
ARC
  5
65fcbc97
330
1F
  8
Layer
100
AcDbEntity
  6
CONTINUOUS
100
AcDbCircle
 10
-0.12380524581122154
 20
-0.6239386082428922
 30
0.0
 40
0.24343625916008219
100
AcDbArc
 50
25.588466422354198
 51
35.10862076156278
  0
ARC
  5
9fa1c047
330
1F
  8
Layer
100
AcDbEntity
  6
CONTINUOUS
100
AcDbCircle
 10
-0.18556365716977719
 20
-0.6535129968469435
 30
0.0
 40
0.31191067653501137
100
AcDbArc
 50
5.417235071432359
 51
25.58846642237321
  0
ARC
  5
43a911ec
330
1F
  8
Layer
100
AcDbEntity
  6
CONTINUOUS
100
AcDbCircle
 10
-0.038500392378145065
 20
-0.6395667909052276
 30
0.0
 40
0.16418762311631702
100
AcDbArc
 50
-10.903797054022021
 51
5.4172350714140425
  0
ARC
  5
09165d9a
330
1F
  8
Layer
100
AcDbEntity
  6
CONTINUOUS
100
AcDbCircle
 10
0.014101586965000523
 20
-0.6496999508240078
 30
0.0
 40
0.1106185167138736
100
AcDbArc
 50
-18.752160419953977
 51
-10.90379705400025
  0
ARC
  5
68f04fc9
330
1F
  8
Layer
100
AcDbEntity
  6
CONTINUOUS
100
AcDbCircle
 10
-0.3450455268675232
 20
-0.5277708306699018
 30
0.0
 40
0.4898985711799456
100
AcDbArc
 50
-22.479310823387117
 51
-18.752160419965506
  0
ARC
  5
2e53cdda
330
1F
  8
Layer
100
AcDbEntity
  6
CONTINUOUS
100
AcDbCircle
 10
-0.014933194726211907
 20
-0.6643682031903697
 30
0.0
 40
0.1326409694255937
100
AcDbArc
 50
-30.156403702600485
 51
-22.479310823359004
  0
ARC
  5
266115c5
330
1F
  8
Layer
100
AcDbEntity
  6
CONTINUOUS
100
AcDbCircle
 10
0.09299956144091848
 20
-0.727076670734079
 30
0.0
 40
0.007813761832402545
100
AcDbArc
 50
-62.178347131683005
 51
-30.15640370256178
  0
ARC
  5
c5696d53
330
1F
  8
Layer
100
AcDbEntity
  6
CONTINUOUS
100
AcDbCircle
 10
0.09424255321247443
 20
-0.7294320563767662
 30
0.0
 40
0.005150517557099855
100
AcDbArc
 50
-129.48003691744657
 51
-62.17834713179722
  0
ARC
  5
e5e3a182
330
1F
  8
Layer
100
AcDbEntity
  6
CONTINUOUS
100
AcDbCircle
 10
0.24039302666619444
 20
-0.5520114426964013
 30
0.0
 40
0.2350157716723405
100
AcDbArc
 50
-132.7228720599771
 51
-129.48003691737983
  0
ARC
  5
c3415c1e
330
1F
  8
Layer
100
AcDbEntity
  6
CONTINUOUS
100
AcDbCircle
 10
-0.028582856205059626
 20
-0.8432644454896205
 30
0.0
 40
0.16143893848058194
100
AcDbArc
 50
47.27712794002646
 51
58.113803798200166
  0
ARC
  5
773b2818
330
1F
  8
Layer
100
AcDbEntity
  6
CONTINUOUS
100
AcDbCircle
 10
-0.016053673629025544
 20
-0.8231246581165361
 30
0.0
 40
0.13771992814168646
100
AcDbArc
 50
58.11380379819743
 51
69.84963314568522
  0
ARC
  5
b98f08ee
330
1F
  8
Layer
100
AcDbEntity
  6
CONTINUOUS
100
AcDbCircle
 10
-0.17965344483304047
 20
-1.2689672413990436
 30
0.0
 40
0.6126309663436063
100
AcDbArc
 50
69.84963314568813
 51
71.96919968540026
  0
ARC
  5
697c53fb
330
1F
  8
Layer
100
AcDbEntity
  6
CONTINUOUS
100
AcDbCircle
 10
0.05027759324363501
 20
-0.5626045236915205
 30
0.0
 40
0.1302126048328395
100
AcDbArc
 50
-118.0151053911995
 51
-108.0308003146063
  0
ARC
  5
53d35580
330
1F
  8
Layer
100
AcDbEntity
  6
CONTINUOUS
100
AcDbCircle
 10
0.017758227811585314
 20
-0.623725675675108
 30
0.0
 40
0.06097891109991767
100
AcDbArc
 50
-134.65408401860552
 51
-118.01510539118277
  0
ARC
  5
748f3177
330
1F
  8
Layer
100
AcDbEntity
  6
CONTINUOUS
100
AcDbCircle
 10
-0.01615032629709856
 20
-0.6580461589237732
 30
0.0
 40
0.01273281683143417
100
AcDbArc
 50
164.43083413542607
 51
-134.65408401864744
  0
ARC
  5
2c0e855b
330
1F
  8
Layer
100
AcDbEntity
  6
CONTINUOUS
100
AcDbCircle
 10
-0.010373340616972149
 20
-0.6596557715265463
 30
0.0
 40
0.01872985078826594
100
AcDbArc
 50
138.3657785280558
 51
164.43083413543155
  0
ARC
  5
73da83c6
330
1F
  8
Layer
100
AcDbEntity
  6
CONTINUOUS
100
AcDbCircle
 10
-0.21895641802418075
 20
-0.4742441461709743
 30
0.0
 40
0.2603478641902984
100
AcDbArc
 50
-41.63422147189949
 51
-38.18793255802071
  0
ARC
  5
140cea11
330
1F
  8
Layer
100
AcDbEntity
  6
CONTINUOUS
100
AcDbCircle
 10
-0.03453511718121094
 20
-0.6193065148602919
 30
0.0
 40
0.025711321822386557
100
AcDbArc
 50
-38.18793255799978
 51
-21.468995775972598
  0
ARC
  5
6a10979e
330
1F
  8
Layer
100
AcDbEntity
  6
CONTINUOUS
100
AcDbCircle
 10
-0.02027077758136131
 20
-0.624916473062165
 30
0.0
 40
0.010383470856037632
100
AcDbArc
 50
-21.4689957760325
 51
37.50837515235153
  0
ARC
  5
5045312d
330
1F
  8
Layer
100
AcDbEntity
  6
CONTINUOUS
100
AcDbCircle
 10
-0.02980299895627092
 20
-0.6322330177887119
 30
0.0
 40
0.022399920875733673
100
AcDbArc
 50
37.50837515238576
 51
58.02434070206363
  0
ARC
  5
e17b6337
330
1F
  8
Layer
100
AcDbEntity
  6
CONTINUOUS
100
AcDbCircle
 10
-0.058466867653295784
 20
-0.6781481897572392
 30
0.0
 40
0.07652773614274463
100
AcDbArc
 50
58.0243407020622
 51
75.83040319215672
  0
ARC
  5
5dbba40c
330
1F
  8
Layer
100
AcDbEntity
  6
CONTINUOUS
100
AcDbCircle
 10
-0.05667507273517014
 20
-0.6710512517445932
 30
0.0
 40
0.06920810102998393
100
AcDbArc
 50
75.83040319216816
 51
89.87443320299991
  0
ARC
  5
4ad0bf38
330
1F
  8
Layer
100
AcDbEntity
  6
CONTINUOUS
100
AcDbCircle
 10
-0.05715204608270508
 20
-0.8886925124313894
 30
0.0
 40
0.2868498843734219
100
AcDbArc
 50
89.87443320299201
 51
96.75963178343537
  0
ARC
  5
ab9821eb
330
1F
  8
Layer
100
AcDbEntity
  6
CONTINUOUS
100
AcDbCircle
 10
0.002329976136698386
 20
-1.3905308087421246
 30
0.0
 40
0.7922010361593568
100
AcDbArc
 50
96.75963178343115
 51
99.54983000528689
  0
ARC
  5
e1a878d2
330
1F
  8
Layer
100
AcDbEntity
  6
CONTINUOUS
100
AcDbCircle
 10
-0.1819648446380404
 20
-0.2950818353819651
 30
0.0
 40
0.3186423525324152
100
AcDbArc
 50
-87.39065160160519
 51
-80.45016999471056
  0
ARC
  5
bc57b547
330
1F
  8
Layer
100
AcDbEntity
  6
CONTINUOUS
100
AcDbCircle
 10
-0.17413279532266301
 20
-0.4669381844999758
 30
0.0
 40
0.14660763008182967
100
AcDbArc
 50
-100.58531137348668
 51
-87.39065160159211
  0
ARC
  5
d894001f
330
1F
  8
Layer
100
AcDbEntity
  6
CONTINUOUS
100
AcDbCircle
 10
-0.19187607174017196
 20
-0.5618831549307772
 30
0.0
 40
0.050018959586093564
100
AcDbArc
 50
-123.27299152449439
 51
-100.58531137349402
  0
ARC
  5
4ca0e1a1
330
1F
  8
Layer
100
AcDbEntity
  6
CONTINUOUS
100
AcDbCircle
 10
-0.19572688076419342
 20
-0.5677514778380919
 30
0.0
 40
0.042999989299506096
100
AcDbArc
 50
-164.79083097825358
 51
-123.27299152450928
  0
ARC
  5
cdcbe5c2
330
1F
  8
Layer
100
AcDbEntity
  6
CONTINUOUS
100
AcDbCircle
 10
-0.14328235778540654
 20
-0.5534936037115343
 30
0.0
 40
0.09734808002108761
100
AcDbArc
 50
176.50339987751224
 51
-164.7908309782407
  0
ARC
  5
0ddcd081
330
1F
  8
Layer
100
AcDbEntity
  6
CONTINUOUS
100
AcDbCircle
 10
0.5351228940249402
 20
-0.5949462400632564
 30
0.0
 40
0.7770185933908887
100
AcDbArc
 50
174.32853178855464
 51
176.50339987748825
  0
ARC
  5
e5c7b734
330
1F
  8
Layer
100
AcDbEntity
  6
CONTINUOUS
100
AcDbCircle
 10
-0.2916886156581715
 20
-0.512835291699951
 30
0.0
 40
0.0538601464897204
100
AcDbArc
 50
-5.671468211431927
 51
11.298304864576702
  0
ARC
  5
0a13071d
330
1F
  8
Layer
100
AcDbEntity
  6
CONTINUOUS
100
AcDbCircle
 10
-0.2597909214988765
 20
-0.5064624848480095
 30
0.0
 40
0.02133207307840251
100
AcDbArc
 50
11.298304864580535
 51
30.348149709357664
  0
ARC
  5
3b13db4b
330
1F
  8
Layer
100
AcDbEntity
  6
CONTINUOUS
100
AcDbCircle
 10
-0.24940298868117217
 20
-0.5003805506291401
 30
0.0
 40
0.00929467003340203
100
AcDbArc
 50
30.34814970935647
 51
94.12030275761038
  0
ARC
  5
d12eab67
330
1F
  8
Layer
100
AcDbEntity
  6
CONTINUOUS
100
AcDbCircle
 10
-0.2485745261449377
 20
-0.5118810534179736
 30
0.0
 40
0.020824974217156907
100
AcDbArc
 50
94.12030275761165
 51
121.93060060232538
  0
ARC
  5
9f8549bb
330
1F
  8
Layer
100
AcDbEntity
  6
CONTINUOUS
100
AcDbCircle
 10
-0.17815684870603166
 20
-0.6248772194893177
 30
0.0
 40
0.15396693921209265
100
AcDbArc
 50
121.93060060230681
 51
132.0715712593304
  0
ARC
  5
c6b902ae
330
1F
  8
Layer
100
AcDbEntity
  6
CONTINUOUS
100
AcDbCircle
 10
-0.04658336041994793
 20
-0.7706378089579793
 30
0.0
 40
0.35032816823151947
100
AcDbArc
 50
132.07157125932574
 51
138.94694157204952
  0
ARC
  5
c1fe560a
330
1F
  8
Layer
100
AcDbEntity
  6
CONTINUOUS
100
AcDbCircle
 10
-0.09985090865197432
 20
-0.7242463625702358
 30
0.0
 40
0.27969108170752593
100
AcDbArc
 50
138.9469415720463
 51
146.6428561521464
  0
ARC
  5
3d4fa7c2
330
1F
  8
Layer
100
AcDbEntity
  6
CONTINUOUS
100
AcDbCircle
 10
0.4346394589454652
 20
-1.0761044986584725
 30
0.0
 40
0.9196005291967267
100
AcDbArc
 50
146.64285615215974
 51
149.54374525830883
  0
ARC
  5
7fb89d0f
330
1F
  8
Layer
100
AcDbEntity
  6
CONTINUOUS
100
AcDbCircle
 10
-0.47673007937755196
 20
-0.5402036571623492
 30
0.0
 40
0.13765258491519825
100
AcDbArc
 50
-40.907083955043696
 51
-30.456254741700107
  0
ARC
  5
64dd4391
330
1F
  8
Layer
100
AcDbEntity
  6
CONTINUOUS
100
AcDbCircle
 10
-0.4194244065508064
 20
-0.589855790992442
 30
0.0
 40
0.061828614219860176
100
AcDbArc
 50
-56.45764362059667
 51
-40.907083955010705
  0
ARC
  5
4466d95c
330
1F
  8
Layer
100
AcDbEntity
  6
CONTINUOUS
100
AcDbCircle
 10
-0.39871036877445243
 20
-0.6211010774536667
 30
0.0
 40
0.024340759025887934
100
AcDbArc
 50
-112.22646074768646
 51
-56.457643620655375
  0
ARC
  5
c0fca7b1
330
1F
  8
Layer
100
AcDbEntity
  6
CONTINUOUS
100
AcDbCircle
 10
-0.39467427105400765
 20
-0.6112239635412384
 30
0.0
 40
0.035010691736456524
100
AcDbArc
 50
-129.23944081071303
 51
-112.22646074762403
  0
ARC
  5
9b1d809e
330
1F
  8
Layer
100
AcDbEntity
  6
CONTINUOUS
100
AcDbCircle
 10
-0.16575601819098607
 20
-0.3309366057251588
 30
0.0
 40
0.39690096439569467
100
AcDbArc
 50
-134.27540719710373
 51
-129.23944081074671
  0
ARC
  5
848bb91e
330
1F
  8
Layer
100
AcDbEntity
  6
CONTINUOUS
100
AcDbCircle
 10
-1.89484284349003
 20
-2.1043198863470076
 30
0.0
 40
2.0799174604008903
100
AcDbArc
 50
45.72459280291682
 51
46.66828663041451
  0
ARC
  5
3189d956
330
1F
  8
Layer
100
AcDbEntity
  6
CONTINUOUS
100
AcDbCircle
 10
-0.5021595572228112
 20
-0.6280782260262823
 30
0.0
 40
0.05042092787994287
100
AcDbArc
 50
46.66828663043494
 51
63.454977698615906
  0
ARC
  5
a323280c
330
1F
  8
Layer
100
AcDbEntity
  6
CONTINUOUS
100
AcDbCircle
 10
-0.4885889034234847
 20
-0.6009131823763612
 30
0.0
 40
0.02005479146051483
100
AcDbArc
 50
63.45497769858088
 51
86.79386902216295
  0
ARC
  5
10cb9dac
330
1F
  8
Layer
100
AcDbEntity
  6
CONTINUOUS
100
AcDbCircle
 10
-0.4880209994054192
 20
-0.5907749395810826
 30
0.0
 40
0.009900655261421063
100
AcDbArc
 50
86.79386902220405
 51
135.33703213045845
  0
ARC
  5
7f0ea94e
330
1F
  8
Layer
100
AcDbEntity
  6
CONTINUOUS
100
AcDbCircle
 10
-0.4813663473682195
 20
-0.5973517589668285
 30
0.0
 40
0.019256880299807322
100
AcDbArc
 50
135.33703213040386
 51
162.78139011810092
  0
ARC
  5
add1a328
330
1F
  8
Layer
100
AcDbEntity
  6
CONTINUOUS
100
AcDbCircle
 10
-0.4361783608004053
 20
-0.6113558627062996
 30
0.0
 40
0.06656511480077798
100
AcDbArc
 50
162.7813901181709
 51
-173.67891755931055
  0
ARC
  5
c64dacf2
330
1F
  8
Layer
100
AcDbEntity
  6
CONTINUOUS
100
AcDbCircle
 10
-0.381308672371635
 20
-0.6052777560553488
 30
0.0
 40
0.12177042332025512
100
AcDbArc
 50
-173.67891755934343
 51
-160.99556742026374
  0
ARC
  5
6a26ae14
330
1F
  8
Layer
100
AcDbEntity
  6
CONTINUOUS
100
AcDbCircle
 10
0.57444831297916
 20
-0.27610152539002475
 30
0.0
 40
1.13262570766212
100
AcDbArc
 50
-160.99556742024382
 51
-158.7147169005554
  0
ARC
  5
9c373132
330
1F
  8
Layer
100
AcDbEntity
  6
CONTINUOUS
100
AcDbCircle
 10
-1.351529374195031
 20
-1.026439001519577
 30
0.0
 40
0.9343518876633142
100
AcDbArc
 50
18.209007719345728
 51
21.28528309944272
  0
ARC
  5
6846a57b
330
1F
  8
Layer
100
AcDbEntity
  6
CONTINUOUS
100
AcDbCircle
 10
-0.570776927956012
 20
-0.7696046372346748
 30
0.0
 40
0.11244053417934993
100
AcDbArc
 50
2.3940857996830887
 51
18.209007719331357
  0
ARC
  5
736a9700
330
1F
  8
Layer
100
AcDbEntity
  6
CONTINUOUS
100
AcDbCircle
 10
-0.5206186003506672
 20
-0.7675075669688043
 30
0.0
 40
0.06223838749352524
100
AcDbArc
 50
-14.310368267331196
 51
2.394085799726048
  0
ARC
  5
7b91c616
330
1F
  8
Layer
100
AcDbEntity
  6
CONTINUOUS
100
AcDbCircle
 10
-0.4995211014447496
 20
-0.7728893180589187
 30
0.0
 40
0.04046529159787584
100
AcDbArc
 50
-55.86318406356024
 51
-14.310368267363364
  0
ARC
  5
6f0a948b
330
1F
  8
Layer
100
AcDbEntity
  6
CONTINUOUS
100
AcDbCircle
 10
-0.5060854108782582
 20
-0.7632072802988634
 30
0.0
 40
0.052162813280950064
100
AcDbArc
 50
-72.63688826221959
 51
-55.863184063522546
  0
ARC
  5
b0aad375
330
1F
  8
Layer
100
AcDbEntity
  6
CONTINUOUS
100
AcDbCircle
 10
-0.240682417754992
 20
-1.6120239744021096
 30
0.0
 40
0.8371788133997939
100
AcDbArc
 50
107.3631117377417
 51
108.87126053176196
  0
ARC
  5
1c213ff4
330
1F
  8
Layer
100
AcDbEntity
  6
CONTINUOUS
100
AcDbCircle
 10
-0.45962703983229347
 20
-0.9714908287050823
 30
0.0
 40
0.16025972054371138
100
AcDbArc
 50
108.87126053177023
 51
119.76197585257077
  0
ARC
  5
777c2892
330
1F
  8
Layer
100
AcDbEntity
  6
CONTINUOUS
100
AcDbCircle
 10
-0.528015816738449
 20
-0.8518933180124477
 30
0.0
 40
0.022489660768030804
100
AcDbArc
 50
119.76197585261875
 51
149.11016821913074
  0
ARC
  5
0cea0f08
330
1F
  8
Layer
100
AcDbEntity
  6
CONTINUOUS
100
AcDbCircle
 10
-0.536518995405546
 20
-0.8468063199187694
 30
0.0
 40
0.01258099804041398
100
AcDbArc
 50
149.11016821907282
 51
-142.745752112322
  0
ARC
  5
7830b522
330
1F
  8
Layer
100
AcDbEntity
  6
CONTINUOUS
100
AcDbCircle
 10
-0.4869188608164292
 20
-0.8090836971183994
 30
0.0
 40
0.07489608146487427
100
AcDbArc
 50
-142.74575211228213
 51
-126.85104201147358
  0
ARC
  5
f3d92d74
330
1F
  8
Layer
100
AcDbEntity
  6
CONTINUOUS
100
AcDbCircle
 10
-0.42426370300823324
 20
-0.7254861855408954
 30
0.0
 40
0.17936719106901722
100
AcDbArc
 50
-126.85104201150602
 51
-122.14823057578604
  0
ARC
  5
0d09f8ec
330
1F
  8
Layer
100
AcDbEntity
  6
CONTINUOUS
100
AcDbCircle
 10
0.3133592104401828
 20
0.4481896002112882
 30
0.0
 40
1.5655859373371286
100
AcDbArc
 50
-122.14823057577587
 51
-120.55681847599288
  0
ARC
  5
65ae6c3a
330
1F
  8
Layer
100
AcDbEntity
  6
CONTINUOUS
100
AcDbCircle
 10
-3.7617630296513003
 20
-6.454333413623066
 30
0.0
 40
6.450113983954904
100
AcDbArc
 50
59.044189983430236
 51
59.44318152400502
  0
ARC
  5
0c1a52be
330
1F
  8
Layer
100
AcDbEntity
  6
CONTINUOUS
100
AcDbCircle
 10
-0.5159640510592582
 20
-1.0429674171094339
 30
0.0
 40
0.13995606535626534
100
AcDbArc
 50
42.4025560126943
 51
59.044189983441164
  0
ARC
  5
6b212e4e
330
1F
  8
Layer
100
AcDbEntity
  6
CONTINUOUS
100
AcDbCircle
 10
-0.5080110772818602
 20
-1.035704703471566
 30
0.0
 40
0.12918588423942007
100
AcDbArc
 50
12.895054394492133
 51
42.40255601267965
  0
ARC
  5
020c78ad
330
1F
  8
Layer
100
AcDbEntity
  6
CONTINUOUS
100
AcDbCircle
 10
-0.5959789897097745
 20
-1.0558440536908706
 30
0.0
 40
0.21942970421719432
100
AcDbArc
 50
1.787269320041358
 51
12.895054394497533
  0
ARC
  5
8b3c1845
330
1F
  8
Layer
100
AcDbEntity
  6
CONTINUOUS
100
AcDbCircle
 10
-0.9508387916982084
 20
-1.0669170478068428
 30
0.0
 40
0.5744622242290417
100
AcDbArc
 50
-2.363940081543052
 51
1.7872693200354657
  0
ARC
  5
1b62e3be
330
1F
  8
Layer
100
AcDbEntity
  6
CONTINUOUS
100
AcDbCircle
 10
-0.23218885256535016
 20
-1.0965843292325148
 30
0.0
 40
0.14479981606145662
100
AcDbArc
 50
177.63605991846157
 51
-173.48831324940872
  0
ARC
  5
eb177216
330
1F
  8
Layer
100
AcDbEntity
  6
CONTINUOUS
100
AcDbCircle
 10
-0.31825252826135886
 20
-1.1064078293749808
 30
0.0
 40
0.05817731650529751
100
AcDbArc
 50
-173.48831324940738
 51
-156.68740724996118
  0
ARC
  5
5339081d
330
1F
  8
Layer
100
AcDbEntity
  6
CONTINUOUS
100
AcDbCircle
 10
-0.3542317353411175
 20
-1.121912299209601
 30
0.0
 40
0.018999619700344708
100
AcDbArc
 50
-156.68740724997136
 51
-111.4867793687738
  0
ARC
  5
572f8d02
330
1F
  8
Layer
100
AcDbEntity
  6
CONTINUOUS
100
AcDbCircle
 10
-0.35666369971430756
 20
-1.128090380583681
 30
0.0
 40
0.012360106150601676
100
AcDbArc
 50
-111.48677936880439
 51
-49.444081449425234
  0
ARC
  5
743ccb63
330
1F
  8
Layer
100
AcDbEntity
  6
CONTINUOUS
100
AcDbCircle
 10
-0.38398725255405397
 20
-1.096161762400622
 30
0.0
 40
0.05438406596956725
100
AcDbArc
 50
-49.44408144940197
 51
-38.132067153688446
  0
ARC
  5
d882b1e1
330
1F
  8
Layer
100
AcDbEntity
  6
CONTINUOUS
100
AcDbCircle
 10
-0.49279180179099846
 20
-1.0107497201925406
 30
0.0
 40
0.19270849218854613
100
AcDbArc
 50
-38.13206715368941
 51
-31.7719008349003
  0
ARC
  5
2a932e5b
330
1F
  8
Layer
100
AcDbEntity
  6
CONTINUOUS
100
AcDbCircle
 10
-0.2768422528023877
 20
-1.144497537339159
 30
0.0
 40
0.06130466947806874
100
AcDbArc
 50
128.1427772256235
 51
148.22809916509334
  0
ARC
  5
4371cd9e
330
1F
  8
Layer
100
AcDbEntity
  6
CONTINUOUS
100
AcDbCircle
 10
-0.294248335064208
 20
-1.1223328379581206
 30
0.0
 40
0.03312230622803082
100
AcDbArc
 50
101.38257684556598
 51
128.14277722564745
  0
ARC
  5
f5ce1fd2
330
1F
  8
Layer
100
AcDbEntity
  6
CONTINUOUS
100
AcDbCircle
 10
-0.29446301544414255
 20
-1.1212664684135507
 30
0.0
 40
0.03203454169877194
100
AcDbArc
 50
74.16324188372701
 51
101.38257684554614
  0
ARC
  5
ad5196eb
330
1F
  8
Layer
100
AcDbEntity
  6
CONTINUOUS
100
AcDbCircle
 10
-0.29989849899990495
 20
-1.1404281297953272
 30
0.0
 40
0.051952215970503875
100
AcDbArc
 50
55.00846241991735
 51
74.163241883734
  0
ARC
  5
a1d89f40
330
1F
  8
Layer
100
AcDbEntity
  6
CONTINUOUS
100
AcDbCircle
 10
-0.36703134088745326
 20
-1.2363339091726242
 30
0.0
 40
0.16901944869540192
100
AcDbArc
 50
41.629141134676075
 51
55.00846241992119
  0
ARC
  5
69d05140
330
1F
  8
Layer
100
AcDbEntity
  6
CONTINUOUS
100
AcDbCircle
 10
-0.30489562063970976
 20
-1.1811106956656194
 30
0.0
 40
0.08589032599615688
100
AcDbArc
 50
29.054148426746085
 51
41.62914113464735
  0
ARC
  5
729cbfe2
330
1F
  8
Layer
100
AcDbEntity
  6
CONTINUOUS
100
AcDbCircle
 10
-0.525001035419467
 20
-1.3033891908942168
 30
0.0
 40
0.33768076269052216
100
AcDbArc
 50
22.721640067495915
 51
29.054148426792693
  0
ARC
  5
a71976b2
330
1F
  8
Layer
100
AcDbEntity
  6
CONTINUOUS
100
AcDbCircle
 10
-57.977550042906884
 20
-25.36181134344544
 30
0.0
 40
62.624140478491654
100
AcDbArc
 50
22.686694458909642
 51
22.721640067444532
  0
ARC
  5
ec69a702
330
1F
  8
Layer
100
AcDbEntity
  6
CONTINUOUS
100
AcDbCircle
 10
-0.12506030470619733
 20
-1.1773748092439191
 30
0.0
 40
0.07990675440586861
100
AcDbArc
 50
-157.31330554114004
 51
-147.76645854621688
  0
ARC
  5
e641bc6d
330
1F
  8
Layer
100
AcDbEntity
  6
CONTINUOUS
100
AcDbCircle
 10
-0.16095649806772583
 20
-1.2000092067820238
 30
0.0
 40
0.03747030015057996
100
AcDbArc
 50
-147.76645854625065
 51
-131.49398439548813
  0
ARC
  5
277ed46a
330
1F
  8
Layer
100
AcDbEntity
  6
CONTINUOUS
100
AcDbCircle
 10
-0.17888913558062636
 20
-1.2202826549712646
 30
0.0
 40
0.010403859866513905
100
AcDbArc
 50
-131.49398439543526
 51
-53.790903072189394
  0
ARC
  5
774e00e8
330
1F
  8
Layer
100
AcDbEntity
  6
CONTINUOUS
100
AcDbCircle
 10
-0.19261876481586593
 20
-1.2015297435242347
 30
0.0
 40
0.03364551227500867
100
AcDbArc
 50
-53.79090307224585
 51
-29.194353859773255
  0
ARC
  5
e7429849
330
1F
  8
Layer
100
AcDbEntity
  6
CONTINUOUS
100
AcDbCircle
 10
-0.4217581491948721
 20
-1.0734977016474525
 30
0.0
 40
0.2961280092547656
100
AcDbArc
 50
-29.194353859749828
 51
-20.9599559690857
  0
ARC
  5
f7179ad6
330
1F
  8
Layer
100
AcDbEntity
  6
CONTINUOUS
100
AcDbCircle
 10
-0.7846732253270745
 20
-0.9344785940233418
 30
0.0
 40
0.68475850827491
100
AcDbArc
 50
-20.95995596908912
 51
-18.326258553437793
  0
ARC
  5
1c83d37e
330
1F
  8
Layer
100
AcDbEntity
  6
CONTINUOUS
100
AcDbCircle
 10
-0.05965545437017439
 20
-1.1746239694036864
 30
0.0
 40
0.07899575162802433
100
AcDbArc
 50
149.35381323724
 51
161.67374144657472
  0
ARC
  5
72f4f884
330
1F
  8
Layer
100
AcDbEntity
  6
CONTINUOUS
100
AcDbCircle
 10
-0.06871443091963503
 20
-1.1692566442837051
 30
0.0
 40
0.06846611559123435
100
AcDbArc
 50
127.44899641294305
 51
149.35381323724513
  0
ARC
  5
59bcb2e1
330
1F
  8
Layer
100
AcDbEntity
  6
CONTINUOUS
100
AcDbCircle
 10
-0.07123235274685946
 20
-1.1659691694463097
 30
0.0
 40
0.06432517111750356
100
AcDbArc
 50
85.03685151220395
 51
127.44899641293036
  0
ARC
  5
0cbfc644
330
1F
  8
Layer
100
AcDbEntity
  6
CONTINUOUS
100
AcDbCircle
 10
-0.07245558339538638
 20
-1.1800551004083608
 30
0.0
 40
0.0784641153598145
100
AcDbArc
 50
56.42568906279528
 51
85.03685151221136
  0
ARC
  5
e6fef9b3
330
1F
  8
Layer
100
AcDbEntity
  6
CONTINUOUS
100
AcDbCircle
 10
-0.10292803928540284
 20
-1.2259644774288379
 30
0.0
 40
0.13356621574062866
100
AcDbArc
 50
34.59175494947959
 51
56.42568906278631
  0
ARC
  5
af42035f
330
1F
  8
Layer
100
AcDbEntity
  6
CONTINUOUS
100
AcDbCircle
 10
-0.5529356998296879
 20
-1.5363084023127882
 30
0.0
 40
0.6802107494743109
100
AcDbArc
 50
33.25504771438384
 51
34.591754949479295
  0
ARC
  5
15607737
330
1F
  8
Layer
100
AcDbEntity
  6
CONTINUOUS
100
AcDbCircle
 10
0.0386443909033265
 20
-1.1483769744417918
 30
0.0
 40
0.027219668645882437
100
AcDbArc
 50
-146.74495228558584
 51
-121.1090422594609
  0
ARC
  5
cc1d227f
330
1F
  8
Layer
100
AcDbEntity
  6
CONTINUOUS
100
AcDbCircle
 10
0.030770499670692786
 20
-1.1614250168836457
 30
0.0
 40
0.011979931945146046
100
AcDbArc
 50
-121.10904225952123
 51
-88.53766457705531
  0
ARC
  5
252cf7e0
330
1F
  8
Layer
100
AcDbEntity
  6
CONTINUOUS
100
AcDbCircle
 10
0.030823910079940786
 20
-1.1635172362773172
 30
0.0
 40
0.009887030929075127
100
AcDbArc
 50
-88.5376645770756
 51
-52.577794758734356
  0
ARC
  5
eb35ca08
330
1F
  8
Layer
100
AcDbEntity
  6
CONTINUOUS
100
AcDbCircle
 10
0.024591440565902456
 20
-1.1553720487692025
 30
0.0
 40
0.020143139147388984
100
AcDbArc
 50
-52.57779475866481
 51
-24.158721597216594
  0
ARC
  5
c644a47d
330
1F
  8
Layer
100
AcDbEntity
  6
CONTINUOUS
100
AcDbCircle
 10
-0.07299157597008388
 20
-1.1116009775772262
 30
0.0
 40
0.12709336957984552
100
AcDbArc
 50
-24.15872159723278
 51
-10.324244023101095
  0
ARC
  5
5dda0886
330
1F
  8
Layer
100
AcDbEntity
  6
CONTINUOUS
100
AcDbCircle
 10
-0.23483071094344887
 20
-1.0821190747239473
 30
0.0
 40
0.2915959172950018
100
AcDbArc
 50
-10.32424402309973
 51
-5.74613073069198
  0
ARC
  5
9dd53d21
330
1F
  8
Layer
100
AcDbEntity
  6
CONTINUOUS
100
AcDbCircle
 10
0.17084836123375546
 20
-1.1229411355914463
 30
0.0
 40
0.11613187211360283
100
AcDbArc
 50
162.74237485975883
 51
174.25386926930906
  0
ARC
  5
62789c91
330
1F
  8
Layer
100
AcDbEntity
  6
CONTINUOUS
100
AcDbCircle
 10
0.24397780813118675
 20
-1.1456591035579382
 30
0.0
 40
0.19270877510693923
100
AcDbArc
 50
146.83535519680996
 51
162.74237485974987
  0
ARC
  5
752ba2b9
330
1F
  8
Layer
100
AcDbEntity
  6
CONTINUOUS
100
AcDbCircle
 10
0.12449502228694587
 20
-1.067577017209009
 30
0.0
 40
0.04997493776728661
100
AcDbArc
 50
127.17891840455836
 51
146.835355196786
  0
ARC
  5
1cf3d22f
330
1F
  8
Layer
100
AcDbEntity
  6
CONTINUOUS
100
AcDbCircle
 10
0.10678402699433587
 20
-1.0442258065321546
 30
0.0
 40
0.020666945779951026
100
AcDbArc
 50
102.32365558148341
 51
127.17891840456541
  0
ARC
  5
d5873ceb
330
1F
  8
Layer
100
AcDbEntity
  6
CONTINUOUS
100
AcDbCircle
 10
0.10476112439410201
 20
-1.0349663062773364
 30
0.0
 40
0.011189051504374431
100
AcDbArc
 50
53.48520750865891
 51
102.32365558155702
  0
ARC
  5
f9e350ef
330
1F
  8
Layer
100
AcDbEntity
  6
CONTINUOUS
100
AcDbCircle
 10
0.10094819317080805
 20
-1.0401164057666772
 30
0.0
 40
0.017597012901237424
100
AcDbArc
 50
31.421505683062826
 51
53.48520750855699
  0
ARC
  5
f001793a
330
1F
  8
Layer
100
AcDbEntity
  6
CONTINUOUS
100
AcDbCircle
 10
-0.16939247766482324
 20
-1.2052723661739255
 30
0.0
 40
0.3343943764728104
100
AcDbArc
 50
25.36537635509586
 51
31.421505683116713
  0
ARC
  5
e54947a6
330
1F
  8
Layer
100
AcDbEntity
  6
CONTINUOUS
100
AcDbCircle
 10
0.05827605397205993
 20
-1.097335949950487
 30
0.0
 40
0.08243558967454497
100
AcDbArc
 50
16.171796088907737
 51
25.365376355064324
  0
ARC
  5
427e8793
330
1F
  8
Layer
100
AcDbEntity
  6
CONTINUOUS
100
AcDbCircle
 10
0.10821244376535955
 20
-1.08285473982204
 30
0.0
 40
0.030441854740684303
100
AcDbArc
 50
-17.964167112003285
 51
16.1717960889142
  0
ARC
  5
5baf331e
330
1F
  8
Layer
100
AcDbEntity
  6
CONTINUOUS
100
AcDbCircle
 10
0.06491286247511319
 20
-1.0688157854566842
 30
0.0
 40
0.0759604880635678
100
AcDbArc
 50
-31.674120605139503
 51
-17.964167111969765
  0
ARC
  5
2686b3d8
330
1F
  8
Layer
100
AcDbEntity
  6
CONTINUOUS
100
AcDbCircle
 10
-12.357194389392921
 20
6.595485133685444
 30
0.0
 40
14.672201687635297
100
AcDbArc
 50
-31.864399205177747
 51
-31.674120605175464
  0
ARC
  5
2a828647
330
1F
  8
Layer
100
AcDbEntity
  6
CONTINUOUS
100
AcDbCircle
 10
2.0503668740252703
 20
-2.3600161687602617
 30
0.0
 40
2.2918433823724738
100
AcDbArc
 50
148.13560079482392
 51
149.24165203413713
  0
ARC
  5
018c4887
330
1F
  8
Layer
100
AcDbEntity
  6
CONTINUOUS
100
AcDbCircle
 10
-0.3839460368492227
 20
-0.9112719179574469
 30
0.0
 40
0.5409536898309791
100
AcDbArc
 50
-35.44555851090853
 51
-30.758347965853847
  0
ARC
  5
8ae25ee3
330
1F
  8
Layer
100
AcDbEntity
  6
CONTINUOUS
100
AcDbCircle
 10
-0.5138818715849078
 20
-0.8187757408038683
 30
0.0
 40
0.7004493447451032
100
AcDbArc
 50
-45.7387949853469
 51
-35.445558510910764
  0
ARC
  5
a3baa874
330
1F
  8
Layer
100
AcDbEntity
  6
CONTINUOUS
100
AcDbCircle
 10
-0.3967239870496375
 20
-0.9389946272075187
 30
0.0
 40
0.5325846654438474
100
AcDbArc
 50
-52.34723526145845
 51
-45.73879498535349
  0
ARC
  5
6b7c1455
330
1F
  8
Layer
100
AcDbEntity
  6
CONTINUOUS
100
AcDbCircle
 10
-0.32088720788896485
 20
-1.0372833152516623
 30
0.0
 40
0.4084400591538293
100
AcDbArc
 50
-56.53539275699551
 51
-52.347235261458316
  0
ARC
  5
033ebac1
330
1F
  8
Layer
100
AcDbEntity
  6
CONTINUOUS
100
AcDbCircle
 10
-0.857415702784174
 20
-0.22558822481219787
 30
0.0
 40
1.3814311925553873
100
AcDbArc
 50
-58.81234764993469
 51
-56.53539275698638
  0
ARC
  5
fc6209fb
330
1F
  8
Layer
100
AcDbEntity
  6
CONTINUOUS
100
AcDbCircle
 10
-0.3888787435314991
 20
-0.9996111042607285
 30
0.0
 40
0.47664486413550194
100
AcDbArc
 50
-63.16901425295689
 51
-58.81234764993538
  0
ARC
  5
2c93c47d
330
1F
  8
Layer
100
AcDbEntity
  6
CONTINUOUS
100
AcDbCircle
 10
-0.18690590559604447
 20
-1.398912639896907
 30
0.0
 40
0.029168894249842633
100
AcDbArc
 50
-80.84611361947226
 51
-63.169014252957865
  0
ARC
  5
ee234ce5
330
1F
  8
Layer
100
AcDbEntity
  6
CONTINUOUS
100
AcDbCircle
 10
-0.18349705013322648
 20
-1.4200674150154426
 30
0.0
 40
0.007741229750831197
100
AcDbArc
 50
-114.0551827734087
 51
-80.84611361945397
  0
ARC
  5
56bad7cb
330
1F
  8
Layer
100
AcDbEntity
  6
CONTINUOUS
100
AcDbCircle
 10
-0.18524256658344118
 20
-1.4239777691062423
 30
0.0
 40
0.003458976045898609
100
AcDbArc
 50
-164.67356342320267
 51
-114.05518277337974
  0
ARC
  5
9f95735a
330
1F
  8
Layer
100
AcDbEntity
  6
CONTINUOUS
100
AcDbCircle
 10
-0.18112556883503705
 20
-1.422849443942886
 30
0.0
 40
0.007727791822507723
100
AcDbArc
 50
170.11304877407153
 51
-164.6735634232968
  0
ARC
  5
c32d969e
330
1F
  8
Layer
100
AcDbEntity
  6
CONTINUOUS
100
AcDbCircle
 10
-0.08875536916578741
 20
-1.438948947822311
 30
0.0
 40
0.10149051262401099
100
AcDbArc
 50
163.20748409224734
 51
170.11304877414375
  0
ARC
  5
dfcaf7f7
330
1F
  8
Layer
100
AcDbEntity
  6
CONTINUOUS
100
AcDbCircle
 10
0.44892396999092443
 20
-1.6012072794237413
 30
0.0
 40
0.6631192493621512
100
AcDbArc
 50
161.50952344401395
 51
163.2074840922377
  0
ARC
  5
ee2be865
330
1F
  8
Layer
100
AcDbEntity
  6
CONTINUOUS
100
AcDbCircle
 10
-0.37722205195428615
 20
-1.3249353703315367
 30
0.0
 40
0.2079969411252889
100
AcDbArc
 50
-18.490476555966193
 51
-13.07535679829807
  0
ARC
  5
1fea40dd
330
1F
  8
Layer
100
AcDbEntity
  6
CONTINUOUS
100
AcDbCircle
 10
-0.3359462734170999
 20
-1.334521832463645
 30
0.0
 40
0.1656225367039732
100
AcDbArc
 50
-13.07535679831032
 51
0.9623081001214632
  0
ARC
  5
6eb111c0
330
1F
  8
Layer
100
AcDbEntity
  6
CONTINUOUS
100
AcDbCircle
 10
-0.20415000597458466
 20
-1.332308047369583
 30
0.0
 40
0.03380767807179277
100
AcDbArc
 50
0.9623081000971524
 51
20.871951796830263
  0
ARC
  5
71f64cfc
330
1F
  8
Layer
100
AcDbEntity
  6
CONTINUOUS
100
AcDbCircle
 10
-0.18350557964396508
 20
-1.3244362851790619
 30
0.0
 40
0.01171340328160139
100
AcDbArc
 50
20.871951796803017
 51
51.667629658314645
  0
ARC
  5
005f682c
330
1F
  8
Layer
100
AcDbEntity
  6
CONTINUOUS
100
AcDbCircle
 10
-0.18025851260980197
 20
-1.320329557533509
 30
0.0
 40
0.006478075567017025
100
AcDbArc
 50
51.66762965842804
 51
93.50452531955683
  0
ARC
  5
f5d27ae6
330
1F
  8
Layer
100
AcDbEntity
  6
CONTINUOUS
100
AcDbCircle
 10
-0.17984824398686383
 20
-1.3270287069431193
 30
0.0
 40
0.013189776033757428
100
AcDbArc
 50
93.50452531949668
 51
125.21669104350721
  0
ARC
  5
abcdfa23
330
1F
  8
Layer
100
AcDbEntity
  6
CONTINUOUS
100
AcDbCircle
 10
-0.11232675741236808
 20
-1.4226873423890518
 30
0.0
 40
0.1302783138357453
100
AcDbArc
 50
125.21669104352578
 51
135.19138225343744
  0
ARC
  5
cbf42b39
330
1F
  8
Layer
100
AcDbEntity
  6
CONTINUOUS
100
AcDbCircle
 10
0.21493750890742258
 20
-1.7477725898466987
 30
0.0
 40
0.5915616520612125
100
AcDbArc
 50
135.19138225341484
 51
138.8001672107818
  0
ARC
  5
c95f86c7
330
1F
  8
Layer
100
AcDbEntity
  6
CONTINUOUS
100
AcDbCircle
 10
-0.2835742791335114
 20
-1.3113610792810142
 30
0.0
 40
0.07098571180796186
100
AcDbArc
 50
-57.455133694106586
 51
-41.199832789177904
  0
ARC
  5
3d89cbf5
330
1F
  8
Layer
100
AcDbEntity
  6
CONTINUOUS
100
AcDbCircle
 10
-0.32071444751222833
 20
-1.2531633105100128
 30
0.0
 40
0.140024631245641
100
AcDbArc
 50
-67.43289064760938
 51
-57.45513369414151
  0
ARC
  5
b873a05d
330
1F
  8
Layer
100
AcDbEntity
  6
CONTINUOUS
100
AcDbCircle
 10
-0.3224375415349967
 20
-1.2490171359939175
 30
0.0
 40
0.1445145996340839
100
AcDbArc
 50
-80.68886269084334
 51
-67.43289064759638
  0
ARC
  5
b4fed134
330
1F
  8
Layer
100
AcDbEntity
  6
CONTINUOUS
100
AcDbCircle
 10
-0.3233167353972852
 20
-1.2436547552552637
 30
0.0
 40
0.14994857690987146
100
AcDbArc
 50
-99.90344186196613
 51
-80.68886269084165
  0
ARC
  5
bda33e8d
330
1F
  8
Layer
100
AcDbEntity
  6
CONTINUOUS
100
AcDbCircle
 10
-0.2620822522757891
 20
-0.892921386598881
 30
0.0
 40
0.5059872795985131
100
AcDbArc
 50
-104.32178074263041
 51
-99.90344186196911
  0
ARC
  5
21b471ec
330
1F
  8
Layer
100
AcDbEntity
  6
CONTINUOUS
100
AcDbCircle
 10
-0.10476375549707995
 20
-0.2767151318396557
 30
0.0
 40
1.1419583935912032
100
AcDbArc
 50
-106.28976231141962
 51
-104.32178074261991
  0
ARC
  5
75e1ef92
330
1F
  8
Layer
100
AcDbEntity
  6
CONTINUOUS
100
AcDbCircle
 10
-0.619525732356172
 20
-2.038232148425335
 30
0.0
 40
0.6932315400507586
100
AcDbArc
 50
73.71023768856642
 51
79.73291689645936
  0
ARC
  5
f65e4849
330
1F
  8
Layer
100
AcDbEntity
  6
CONTINUOUS
100
AcDbCircle
 10
-0.5916073398450854
 20
-1.884103870129495
 30
0.0
 40
0.5365951368398739
100
AcDbArc
 50
79.73291689647276
 51
85.02478350736234
  0
ARC
  5
90f6a654
330
1F
  8
Layer
100
AcDbEntity
  6
CONTINUOUS
100
AcDbCircle
 10
-0.6109289903109001
 20
-2.1060570648384838
 30
0.0
 40
0.7593877462735117
100
AcDbArc
 50
85.02478350736365
 51
89.47268485380559
  0
ARC
  5
c2642bf7
330
1F
  8
Layer
100
AcDbEntity
  6
CONTINUOUS
100
AcDbCircle
 10
-0.6051335311399946
 20
-1.47636535601526
 30
0.0
 40
0.12966936833960288
100
AcDbArc
 50
89.47268485380798
 51
99.51779943755507
  0
ARC
  5
6489560f
330
1F
  8
Layer
100
AcDbEntity
  6
CONTINUOUS
100
AcDbCircle
 10
-0.6238318467841739
 20
-1.3648414721013082
 30
0.0
 40
0.01658884972042684
100
AcDbArc
 50
99.51779943751886
 51
127.85416920178173
  0
ARC
  5
2de3a3eb
330
1F
  8
Layer
100
AcDbEntity
  6
CONTINUOUS
100
AcDbCircle
 10
-0.6278426640725545
 20
-1.3596808395604592
 30
0.0
 40
0.010052888923233626
100
AcDbArc
 50
127.85416920176692
 51
-166.09952251003085
  0
ARC
  5
d42c7430
330
1F
  8
Layer
100
AcDbEntity
  6
CONTINUOUS
100
AcDbCircle
 10
-0.6025819346705092
 20
-1.3534292176304337
 30
0.0
 40
0.03607571018994746
100
AcDbArc
 50
-166.09952251001786
 51
-132.6607259821946
  0
ARC
  5
67e49f84
330
1F
  8
Layer
100
AcDbEntity
  6
CONTINUOUS
100
AcDbCircle
 10
-0.4643315177412617
 20
-1.2034024666057117
 30
0.0
 40
0.2400884642131819
100
AcDbArc
 50
-132.66072598217622
 51
-126.36572172300224
  0
ARC
  5
15409fde
330
1F
  8
Layer
100
AcDbEntity
  6
CONTINUOUS
100
AcDbCircle
 10
-0.9518197113328835
 20
-1.8654442447206179
 30
0.0
 40
0.5820697047912798
100
AcDbArc
 50
48.81320517377469
 51
53.634278276977156
  0
ARC
  5
d9508c02
330
1F
  8
Layer
100
AcDbEntity
  6
CONTINUOUS
100
AcDbCircle
 10
-0.8045837007663073
 20
-1.6971796720216819
 30
0.0
 40
0.35848211740522573
100
AcDbArc
 50
42.42267115355247
 51
48.81320517379143
  0
ARC
  5
40144823
330
1F
  8
Layer
100
AcDbEntity
  6
CONTINUOUS
100
AcDbCircle
 10
-0.7379031997310093
 20
-1.6362436060416898
 30
0.0
 40
0.268152203448462
100
AcDbArc
 50
35.03247152636125
 51
42.422671153539724
  0
ARC
  5
03057c91
330
1F
  8
Layer
100
AcDbEntity
  6
CONTINUOUS
100
AcDbCircle
 10
0.36872604188165337
 20
-0.8604384389496615
 30
0.0
 40
1.0833291821721116
100
AcDbArc
 50
-144.96752847362865
 51
-142.88074512515965
  0
ARC
  5
6acda6f0
330
1F
  8
Layer
100
AcDbEntity
  6
CONTINUOUS
100
AcDbCircle
 10
-0.08243930375583775
 20
-1.20189051278572
 30
0.0
 40
0.5175203029282968
100
AcDbArc
 50
-142.88074512516218
 51
-136.48691817292803
  0
ARC
  5
290930a5
330
1F
  8
Layer
100
AcDbEntity
  6
CONTINUOUS
100
AcDbCircle
 10
-0.11947516533566982
 20
-1.2370523076395423
 30
0.0
 40
0.4664516544215783
100
AcDbArc
 50
-136.48691817293314
 51
-124.67629681685673
  0
ARC
  5
fa90b7eb
330
1F
  8
Layer
100
AcDbEntity
  6
CONTINUOUS
100
AcDbCircle
 10
-0.24910084850698366
 20
-1.4244211389714507
 30
0.0
 40
0.2386142196302016
100
AcDbArc
 50
-124.67629681684974
 51
-108.13505951347285
  0
ARC
  5
33b1a07f
330
1F
  8
Layer
100
AcDbEntity
  6
CONTINUOUS
100
AcDbCircle
 10
-0.04107198305596116
 20
-0.7892723949210649
 30
0.0
 40
0.9069628830758776
100
AcDbArc
 50
-108.13505951347821
 51
-104.83572074374938
  0
ARC
  5
199ff091
330
1F
  8
Layer
100
AcDbEntity
  6
CONTINUOUS
100
AcDbCircle
 10
-0.412911634618337
 20
-2.1930846715363677
 30
0.0
 40
0.5452608030172353
100
AcDbArc
 50
69.67496302543863
 51
75.16427925624916
  0
ARC
  5
acc3a660
330
1F
  8
Layer
100
AcDbEntity
  6
CONTINUOUS
100
AcDbCircle
 10
-0.3613449517771219
 20
-2.053868803709361
 30
0.0
 40
0.3968014461747879
100
AcDbArc
 50
64.07165998511438
 51
69.67496302544873
  0
ARC
  5
e77e8b8e
330
1F
  8
Layer
100
AcDbEntity
  6
CONTINUOUS
100
AcDbCircle
 10
-0.180465396102931
 20
-1.681830503240725
 30
0.0
 40
0.016877065083029122
100
AcDbArc
 50
-115.92834001490841
 51
-82.32955545128974
  0
ARC
  5
281df980
330
1F
  8
Layer
100
AcDbEntity
  6
CONTINUOUS
100
AcDbCircle
 10
-0.1796655821083437
 20
-1.687769124936574
 30
0.0
 40
0.010884825929561458
100
AcDbArc
 50
-82.32955545125571
 51
-10.630465649170127
  0
ARC
  5
bb95a6c3
330
1F
  8
Layer
100
AcDbEntity
  6
CONTINUOUS
100
AcDbCircle
 10
-0.2123385488576106
 20
-1.6816365620957983
 30
0.0
 40
0.0441283378257913
100
AcDbArc
 50
-10.63046564919319
 51
10.946570331709866
  0
ARC
  5
c78cace6
330
1F
  8
Layer
100
AcDbEntity
  6
CONTINUOUS
100
AcDbCircle
 10
-0.2551906848774812
 20
-1.6899247105562496
 30
0.0
 40
0.08777463167037775
100
AcDbArc
 50
10.946570331714792
 51
26.326141094250346
  0
ARC
  5
826c7670
330
1F
  8
Layer
100
AcDbEntity
  6
CONTINUOUS
100
AcDbCircle
 10
-0.3822932451536416
 20
-1.7528148800355596
 30
0.0
 40
0.22958518926709345
100
AcDbArc
 50
26.32614109423933
 51
38.443613398639386
  0
ARC
  5
4eb0a9af
330
1F
  8
Layer
100
AcDbEntity
  6
CONTINUOUS
100
AcDbCircle
 10
-0.5074090064473031
 20
-1.8521355702307554
 30
0.0
 40
0.38933046533165344
100
AcDbArc
 50
38.44361339862985
 51
42.00818914393224
  0
ARC
  5
810d29ab
330
1F
  8
Layer
100
AcDbEntity
  6
CONTINUOUS
100
AcDbCircle
 10
-0.1462142338435597
 20
-1.526820845951671
 30
0.0
 40
0.09676760459770437
100
AcDbArc
 50
-152.3687409252874
 51
-137.99181085604806
  0
ARC
  5
14de80c3
330
1F
  8
Layer
100
AcDbEntity
  6
CONTINUOUS
100
AcDbCircle
 10
-0.19170902397476053
 20
-1.5506365609248058
 30
0.0
 40
0.04541622478407515
100
AcDbArc
 50
-167.17449477782213
 51
-152.36874092529683
  0
ARC
  5
fc3c3676
330
1F
  8
Layer
100
AcDbEntity
  6
CONTINUOUS
100
AcDbCircle
 10
-0.22121775039601332
 20
-1.5573545943261464
 30
0.0
 40
0.015152436062471302
100
AcDbArc
 50
132.53284357791517
 51
-167.17449477779402
  0
ARC
  5
3f71082e
330
1F
  8
Layer
100
AcDbEntity
  6
CONTINUOUS
100
AcDbCircle
 10
-0.21527299888472662
 20
-1.5638346907361143
 30
0.0
 40
0.023946281638407813
100
AcDbArc
 50
109.01568546062938
 51
132.5328435778848
  0
ARC
  5
bd793123
330
1F
  8
Layer
100
AcDbEntity
  6
CONTINUOUS
100
AcDbCircle
 10
-0.17688754172485455
 20
-1.6752150897576834
 30
0.0
 40
0.14175560473117718
100
AcDbArc
 50
99.40642423676186
 51
109.01568546062674
  0
ARC
  5
900c1164
330
1F
  8
Layer
100
AcDbEntity
  6
CONTINUOUS
100
AcDbCircle
 10
-0.10861592343489823
 20
-2.087323734494979
 30
0.0
 40
0.5594810515633516
100
AcDbArc
 50
96.40980483883243
 51
99.40642423677912
  0
ARC
  5
d14c8104
330
1F
  8
Layer
100
AcDbEntity
  6
CONTINUOUS
100
AcDbCircle
 10
-0.21221718872702566
 20
-1.1651223123626042
 30
0.0
 40
0.3685214727613966
100
AcDbArc
 50
-83.59019516118117
 51
-75.1355612027532
  0
ARC
  5
f5418633
330
1F
  8
Layer
100
AcDbEntity
  6
CONTINUOUS
100
AcDbCircle
 10
-0.21612260280569395
 20
-1.150407940376409
 30
0.0
 40
0.3837453028338184
100
AcDbArc
 50
-75.13556120274795
 51
-57.90764470790314
  0
ARC
  5
90d3c5c9
330
1F
  8
Layer
100
AcDbEntity
  6
CONTINUOUS
100
AcDbCircle
 10
-0.3756925976116112
 20
-0.8959561603083859
 30
0.0
 40
0.6840922549111557
100
AcDbArc
 50
-57.90764470790446
 51
-45.02589762025225
  0
ARC
  5
ef7d5a21
330
1F
  8
Layer
100
AcDbEntity
  6
CONTINUOUS
100
AcDbCircle
 10
-0.3232260991498497
 20
-0.9484701098037351
 30
0.0
 40
0.6098598606857359
100
AcDbArc
 50
-45.02589762025474
 51
-38.58174824506961
  0
ARC
  5
56eed14f
330
1F
  8
Layer
100
AcDbEntity
  6
CONTINUOUS
100
AcDbCircle
 10
-0.3824539985304012
 20
-0.9012199817355204
 30
0.0
 40
0.6856260712778949
100
AcDbArc
 50
-38.58174824507085
 51
-32.50443477999918
  0
ARC
  5
3e02c65d
330
1F
  8
Layer
100
AcDbEntity
  6
CONTINUOUS
100
AcDbCircle
 10
-1.2778596342043635
 20
-0.33068624100363864
 30
0.0
 40
1.7473510835622463
100
AcDbArc
 50
-32.504434779996444
 51
-30.43862010609419
  0
ARC
  5
8ef386cf
330
1F
  8
Layer
100
AcDbEntity
  6
CONTINUOUS
100
AcDbCircle
 10
0.34795856624471444
 20
-1.2860217920024126
 30
0.0
 40
0.13837181122203537
100
AcDbArc
 50
143.03547167797444
 51
149.56137989390882
  0
ARC
  5
4a68b125
330
1F
  8
Layer
100
AcDbEntity
  6
CONTINUOUS
100
AcDbCircle
 10
0.30039629037745175
 20
-1.2502271911077745
 30
0.0
 40
0.07884514880190649
100
AcDbArc
 50
133.81464645131118
 51
143.03547167798823
  0
ARC
  5
8d108df9
330
1F
  8
Layer
100
AcDbEntity
  6
CONTINUOUS
100
AcDbCircle
 10
0.24755990601928057
 20
-1.195158105061905
 30
0.0
 40
0.0025281274372601454
100
AcDbArc
 50
80.47013507240145
 51
133.8146464512026
  0
ARC
  5
fb73869d
330
1F
  8
Layer
100
AcDbEntity
  6
CONTINUOUS
100
AcDbCircle
 10
0.24670657370235705
 20
-1.2002411404027995
 30
0.0
 40
0.007682293162175497
100
AcDbArc
 50
66.31131537107372
 51
80.47013507257313
  0
ARC
  5
31677b3d
330
1F
  8
Layer
100
AcDbEntity
  6
CONTINUOUS
100
AcDbCircle
 10
0.19329012986900196
 20
-1.321992520658444
 30
0.0
 40
0.1406361011781794
100
AcDbArc
 50
63.010064391116586
 51
66.31131537097426
  0
ARC
  5
cf0d02ce
330
1F
  8
Layer
100
AcDbEntity
  6
CONTINUOUS
100
AcDbCircle
 10
0.07609271842861265
 20
-1.552105308507312
 30
0.0
 40
0.39887461182271194
100
AcDbArc
 50
58.55758026116676
 51
63.01006439114137
  0
ARC
  5
ff14a9fb
330
1F
  8
Layer
100
AcDbEntity
  6
CONTINUOUS
100
AcDbCircle
 10
0.7029417112930536
 20
-0.5268694200023958
 30
0.0
 40
0.8028109905432437
100
AcDbArc
 50
-121.44241973884738
 51
-117.33419366064665
  0
ARC
  5
c90678fb
330
1F
  8
Layer
100
AcDbEntity
  6
CONTINUOUS
100
AcDbCircle
 10
0.5247183731051854
 20
-0.8716657742737934
 30
0.0
 40
0.4146768846034612
100
AcDbArc
 50
-117.33419366065453
 51
-113.53835013598695
  0
ARC
  5
e8838a52
330
1F
  8
Layer
100
AcDbEntity
  6
CONTINUOUS
100
AcDbCircle
 10
0.8358630640699021
 20
-0.15738976966448726
 30
0.0
 40
1.193779720868457
100
AcDbArc
 50
-113.53835013597103
 51
-111.30143621068534
  0
ARC
  5
52e3ccbb
330
1F
  8
Layer
100
AcDbEntity
  6
CONTINUOUS
100
AcDbCircle
 10
0.24676243433542377
 20
-1.6682428482958576
 30
0.0
 40
0.42786036779593134
100
AcDbArc
 50
64.70089133143163
 51
68.69856378929993
  0
ARC
  5
05e16718
330
1F
  8
Layer
100
AcDbEntity
  6
CONTINUOUS
100
AcDbCircle
 10
0.4135857727570098
 20
-1.3153111370463735
 30
0.0
 40
0.037487700915151766
100
AcDbArc
 50
38.779725882008115
 51
64.70089133143374
  0
ARC
  5
e86c10b3
330
1F
  8
Layer
100
AcDbEntity
  6
CONTINUOUS
100
AcDbCircle
 10
0.41918332576260986
 20
-1.3108138490677292
 30
0.0
 40
0.030307297109420706
100
AcDbArc
 50
0.4670509776628307
 51
38.779725882006424
  0
ARC
  5
e3fccc94
330
1F
  8
Layer
100
AcDbEntity
  6
CONTINUOUS
100
AcDbCircle
 10
0.321118074600391
 20
-1.3116132532529023
 30
0.0
 40
0.12837580649220007
100
AcDbArc
 50
-11.140493326058836
 51
0.4670509776875442
  0
ARC
  5
662ea322
330
1F
  8
Layer
100
AcDbEntity
  6
CONTINUOUS
100
AcDbCircle
 10
0.11610727682656652
 20
-1.271241246218034
 30
0.0
 40
0.33732394875693456
100
AcDbArc
 50
-17.83905274214407
 51
-11.140493326072132
  0
ARC
  5
4a947c36
330
1F
  8
Layer
100
AcDbEntity
  6
CONTINUOUS
100
AcDbCircle
 10
0.4739779810319744
 20
-1.3864100869073226
 30
0.0
 40
0.03862192872304181
100
AcDbArc
 50
162.16094725784794
 51
176.82598974412312
  0
ARC
  5
bbf06530
330
1F
  8
Layer
100
AcDbEntity
  6
CONTINUOUS
100
AcDbCircle
 10
0.4538350711741985
 20
-1.385293088694956
 30
0.0
 40
0.018448071815030963
100
AcDbArc
 50
176.8259897441382
 51
-163.1430752830134
  0
ARC
  5
b7a2fe26
330
1F
  8
Layer
100
AcDbEntity
  6
CONTINUOUS
100
AcDbCircle
 10
0.4440679773814782
 20
-1.3882525397361956
 30
0.0
 40
0.008242462003692294
100
AcDbArc
 50
-163.14307528303587
 51
-97.20346142283931
  0
ARC
  5
d349f247
330
1F
  8
Layer
100
AcDbEntity
  6
CONTINUOUS
100
AcDbCircle
 10
0.4455052272848048
 20
-1.37688106016264
 30
0.0
 40
0.01970440926305453
100
AcDbArc
 50
-97.20346142280059
 51
-69.25517836623759
  0
ARC
  5
7c46fa17
330
1F
  8
Layer
100
AcDbEntity
  6
CONTINUOUS
100
AcDbCircle
 10
0.40210309202355
 20
-1.2622918241439816
 30
0.0
 40
0.14223782656860492
100
AcDbArc
 50
-69.25517836627697
 51
-58.94178579942305
  0
ARC
  5
e91aec4a
330
1F
  8
Layer
100
AcDbEntity
  6
CONTINUOUS
100
AcDbCircle
 10
0.2971078269899967
 20
-1.0879518386461633
 30
0.0
 40
0.3457530255657446
100
AcDbArc
 50
-58.94178579939468
 51
-52.825894935052865
  0
ARC
  5
a90fc92b
330
1F
  8
Layer
100
AcDbEntity
  6
CONTINUOUS
100
AcDbCircle
 10
-0.8558901407633117
 20
0.43249329672981784
 30
0.0
 40
2.253934810231909
100
AcDbArc
 50
-52.825894935053974
 51
-51.41572144588463
  0
ARC
  5
20e5a3d3
330
1F
  8
Layer
100
AcDbEntity
  6
CONTINUOUS
100
AcDbCircle
 10
0.6198893809330845
 20
-1.4172245122627902
 30
0.0
 40
0.1123663476013165
100
AcDbArc
 50
124.3163234568325
 51
128.58427855413197
  0
ARC
  5
a07c1f98
330
1F
  8
Layer
100
AcDbEntity
  6
CONTINUOUS
100
AcDbCircle
 10
0.5682104982139655
 20
-1.3415124472780844
 30
0.0
 40
0.02069833953228126
100
AcDbArc
 50
107.91438600741304
 51
124.31632345677593
  0
ARC
  5
510dc651
330
1F
  8
Layer
100
AcDbEntity
  6
CONTINUOUS
100
AcDbCircle
 10
0.5715193398776657
 20
-1.3517480306252982
 30
0.0
 40
0.03145545808760028
100
AcDbArc
 50
88.14598827753316
 51
107.9143860074474
  0
ARC
  5
070a0528
330
1F
  8
Layer
100
AcDbEntity
  6
CONTINUOUS
100
AcDbCircle
 10
0.5718120801182953
 20
-1.3427044385462759
 30
0.0
 40
0.02240712926177643
100
AcDbArc
 50
41.92095916447981
 51
88.14598827753841
  0
ARC
  5
7fe75300
330
1F
  8
Layer
100
AcDbEntity
  6
CONTINUOUS
100
AcDbCircle
 10
0.5626239908331259
 20
-1.3509545084623242
 30
0.0
 40
0.03475559630558154
100
AcDbArc
 50
23.366350591731226
 51
41.920959164464165
  0
ARC
  5
f8b18e35
330
1F
  8
Layer
100
AcDbEntity
  6
CONTINUOUS
100
AcDbCircle
 10
0.465996419654247
 20
-1.3927016339208398
 30
0.0
 40
0.1400157976923269
100
AcDbArc
 50
14.152432637756093
 51
23.36635059172741
  0
ARC
  5
8113ff6a
330
1F
  8
Layer
100
AcDbEntity
  6
CONTINUOUS
100
AcDbCircle
 10
2.3864715951056343
 20
-0.9084428292114424
 30
0.0
 40
1.840572874764327
100
AcDbArc
 50
-165.84756736221635
 51
-165.0678109496126
  0
ARC
  5
3c4f911c
330
1F
  8
Layer
100
AcDbEntity
  6
CONTINUOUS
100
AcDbCircle
 10
0.6207388379369465
 20
-1.3793303768762912
 30
0.0
 40
0.013130056976490001
100
AcDbArc
 50
-165.06781094961028
 51
-122.35602200544426
  0
ARC
  5
f40bcc2d
330
1F
  8
Layer
100
AcDbEntity
  6
CONTINUOUS
100
AcDbCircle
 10
0.6203440716968618
 20
-1.3799534855805484
 30
0.0
 40
0.0123924223503833
100
AcDbArc
 50
-122.35602200547216
 51
-50.50194913582041
  0
ARC
  5
e7b78f30
330
1F
  8
Layer
100
AcDbEntity
  6
CONTINUOUS
100
AcDbCircle
 10
0.5940818502933216
 20
-1.3480926552272912
 30
0.0
 40
0.053681849372898466
100
AcDbArc
 50
-50.50194913583669
 51
-37.388555797434826
  0
ARC
  5
1579db8e
330
1F
  8
Layer
100
AcDbEntity
  6
CONTINUOUS
100
AcDbCircle
 10
0.558544424071697
 20
-1.3209334870127554
 30
0.0
 40
0.09840912383225758
100
AcDbArc
 50
-37.38855579739432
 51
-24.484475126904478
  0
ARC
  5
6f2d069e
330
1F
  8
Layer
100
AcDbEntity
  6
CONTINUOUS
100
AcDbCircle
 10
0.358822259205807
 20
-1.2299802006653617
 30
0.0
 40
0.3178662800976868
100
AcDbArc
 50
-24.484475126920344
 51
-17.314995480632795
  0
ARC
  5
c4f754a4
330
1F
  8
Layer
100
AcDbEntity
  6
CONTINUOUS
100
AcDbCircle
 10
1.5222369296044442
 20
-1.5926775740069077
 30
0.0
 40
0.9007735682281529
100
AcDbArc
 50
160.7323693292335
 51
162.68500451935617
  0
ARC
  5
17746b1e
330
1F
  8
Layer
100
AcDbEntity
  6
CONTINUOUS
100
AcDbCircle
 10
0.7845746729576462
 20
-1.334819684374225
 30
0.0
 40
0.11934135995473662
100
AcDbArc
 50
144.71429073837038
 51
160.73236932924564
  0
ARC
  5
dbaec449
330
1F
  8
Layer
100
AcDbEntity
  6
CONTINUOUS
100
AcDbCircle
 10
0.7286161318308739
 20
-1.2952197792617655
 30
0.0
 40
0.05078838182867405
100
AcDbArc
 50
125.01932913285685
 51
144.71429073836381
  0
ARC
  5
3e148172
330
1F
  8
Layer
100
AcDbEntity
  6
CONTINUOUS
100
AcDbCircle
 10
0.716568886886841
 20
-1.2780268780977762
 30
0.0
 40
0.02979476467544818
100
AcDbArc
 50
72.15870159537612
 51
125.0193291328521
  0
ARC
  5
278c9c4d
330
1F
  8
Layer
100
AcDbEntity
  6
CONTINUOUS
100
AcDbCircle
 10
0.7123069982358083
 20
-1.2912683079442429
 30
0.0
 40
0.04370516219862083
100
AcDbArc
 50
57.95021526949105
 51
72.15870159539382
  0
ARC
  5
a1534d20
330
1F
  8
Layer
100
AcDbEntity
  6
CONTINUOUS
100
AcDbCircle
 10
0.6874388614129783
 20
-1.3309888048019765
 30
0.0
 40
0.09056817639600494
100
AcDbArc
 50
48.09312584861708
 51
57.95021526948777
  0
ARC
  5
241edbfa
330
1F
  8
Layer
100
AcDbEntity
  6
CONTINUOUS
100
AcDbCircle
 10
0.7092443591113742
 20
-1.306692045492342
 30
0.0
 40
0.05792139641964212
100
AcDbArc
 50
30.512843002320874
 51
48.09312584859805
  0
ARC
  5
d46b2a70
330
1F
  8
Layer
100
AcDbEntity
  6
CONTINUOUS
100
AcDbCircle
 10
0.8757663947240832
 20
-1.208552786012701
 30
0.0
 40
0.13536828927468753
100
AcDbArc
 50
-149.48715699766086
 51
-135.5382713288816
  0
ARC
  5
b0e47876
330
1F
  8
Layer
100
AcDbEntity
  6
CONTINUOUS
100
AcDbCircle
 10
0.8105783242559177
 20
-1.27252738823734
 30
0.0
 40
0.044032456978904344
100
AcDbArc
 50
-135.53827132885553
 51
-117.04386119145079
  0
ARC
  5
97693e25
330
1F
  8
Layer
100
AcDbEntity
  6
CONTINUOUS
100
AcDbCircle
 10
0.7951613214092728
 20
-1.3027277841815434
 30
0.0
 40
0.010124524397278095
100
AcDbArc
 50
-117.04386119156406
 51
-77.8842291358323
  0
ARC
  5
18de4bae
330
1F
  8
Layer
100
AcDbEntity
  6
CONTINUOUS
100
AcDbCircle
 10
0.7953721564383862
 20
-1.3037099226834046
 30
0.0
 40
0.0091200108601171
100
AcDbArc
 50
-77.88422913575039
 51
-34.245675739685566
  0
ARC
  5
e83eb1f6
330
1F
  8
Layer
100
AcDbEntity
  6
CONTINUOUS
100
AcDbCircle
 10
0.7690137215847983
 20
-1.2857660146217078
 30
0.0
 40
0.0410065428831748
100
AcDbArc
 50
-34.245675739676734
 51
-14.055387022117724
  0
ARC
  5
e5061880
330
1F
  8
Layer
100
AcDbEntity
  6
CONTINUOUS
100
AcDbCircle
 10
0.7005779490650867
 20
-1.2686327747327215
 30
0.0
 40
0.11155441931799905
100
AcDbArc
 50
-14.055387022132232
 51
-4.210625171013207
  0
ARC
  5
37c4999d
330
1F
  8
Layer
100
AcDbEntity
  6
CONTINUOUS
100
AcDbCircle
 10
0.5703204380611193
 20
-1.2590429749616712
 30
0.0
 40
0.24216446270133682
100
AcDbArc
 50
-4.210625170989559
 51
2.46673539506342
  0
ARC
  5
06d1a96a
330
1F
  8
Layer
100
AcDbEntity
  6
CONTINUOUS
100
AcDbCircle
 10
0.6671131854342842
 20
-1.2548732136796186
 30
0.0
 40
0.14528194181550022
100
AcDbArc
 50
2.466735395054305
 51
15.791017411721489
  0
ARC
  5
89289693
330
1F
  8
Layer
100
AcDbEntity
  6
CONTINUOUS
100
AcDbCircle
 10
-0.687202124957931
 20
-1.6378765027015507
 30
0.0
 40
1.5527127498356956
100
AcDbArc
 50
15.791017411722958
 51
17.00332417931931
  0
ARC
  5
a43232ae
330
1F
  8
Layer
100
AcDbEntity
  6
CONTINUOUS
100
AcDbCircle
 10
0.9568022332094077
 20
-1.1351496310292137
 30
0.0
 40
0.16643955207785396
100
AcDbArc
 50
-171.44698973264215
 51
-162.99667582067582
  0
ARC
  5
e0c4e267
330
1F
  8
Layer
100
AcDbEntity
  6
CONTINUOUS
100
AcDbCircle
 10
0.8222569384246041
 20
-1.1553848398782083
 30
0.0
 40
0.030381108657785174
100
AcDbArc
 50
133.77533157616358
 51
-171.4469897326627
  0
ARC
  5
43b2a87a
330
1F
  8
Layer
100
AcDbEntity
  6
CONTINUOUS
100
AcDbCircle
 10
0.8301021973493752
 20
-1.1635728541400974
 30
0.0
 40
0.04172093516217228
100
AcDbArc
 50
114.54130143399972
 51
133.77533157620223
  0
ARC
  5
a86ddbfe
330
1F
  8
Layer
100
AcDbEntity
  6
CONTINUOUS
100
AcDbCircle
 10
0.824469171797114
 20
-1.151235882265661
 30
0.0
 40
0.028158787400735356
100
AcDbArc
 50
91.07531818264457
 51
114.54130143398969
  0
ARC
  5
2df7f67f
330
1F
  8
Layer
100
AcDbEntity
  6
CONTINUOUS
100
AcDbCircle
 10
0.825255817882196
 20
-1.1931455322440374
 30
0.0
 40
0.07007581942082407
100
AcDbArc
 50
76.30860200044849
 51
91.07531818261063
  0
ARC
  5
61897903
330
1F
  8
Layer
100
AcDbEntity
  6
CONTINUOUS
100
AcDbCircle
 10
0.8879484906643533
 20
-0.9358019502858574
 30
0.0
 40
0.1947941305463942
100
AcDbArc
 50
-103.69139799953263
 51
-98.39197702755354
  0
ARC
  5
b34b215b
330
1F
  8
Layer
100
AcDbEntity
  6
CONTINUOUS
100
AcDbCircle
 10
0.8685897612200746
 20
-1.0670261552639173
 30
0.0
 40
0.06214967201977268
100
AcDbArc
 50
-98.3919770275658
 51
-88.81408604994985
  0
ARC
  5
6bbb1431
330
1F
  8
Layer
100
AcDbEntity
  6
CONTINUOUS
100
AcDbCircle
 10
0.8696768603313965
 20
-1.1195403330662284
 30
0.0
 40
0.009624243371063955
100
AcDbArc
 50
-88.8140860499196
 51
-16.24983502800155
  0
ARC
  5
b2f94780
330
1F
  8
Layer
100
AcDbEntity
  6
CONTINUOUS
100
AcDbCircle
 10
0.8602130569399327
 20
-1.1167819154935754
 30
0.0
 40
0.01948185170865787
100
AcDbArc
 50
-16.2498350280047
 51
14.18112438435162
  0
ARC
  5
a09f1362
330
1F
  8
Layer
100
AcDbEntity
  6
CONTINUOUS
100
AcDbCircle
 10
0.6820098961539693
 20
-1.1618117861425927
 30
0.0
 40
0.2032862470989069
100
AcDbArc
 50
14.18112438433594
 51
25.525420378942083
  0
ARC
  5
d3efe7cb
330
1F
  8
Layer
100
AcDbEntity
  6
CONTINUOUS
100
AcDbCircle
 10
0.7360001685788635
 20
-1.1360303375085958
 30
0.0
 40
0.143456216092884
100
AcDbArc
 50
25.525420378955662
 51
35.32648849058838
  0
ARC
  5
dc699066
330
1F
  8
Layer
100
AcDbEntity
  6
CONTINUOUS
100
AcDbCircle
 10
0.5055316669263046
 20
-1.2993711479446526
 30
0.0
 40
0.42593798649211284
100
AcDbArc
 50
35.326488490576935
 51
41.009889919060335
  0
ARC
  5
67f751f0
330
1F
  8
Layer
100
AcDbEntity
  6
CONTINUOUS
100
AcDbCircle
 10
-0.6060762745930681
 20
-2.2660141094705857
 30
0.0
 40
1.8990540140732957
100
AcDbArc
 50
41.0098899190534
 51
43.019687031749925
  0
ARC
  5
a00ce680
330
1F
  8
Layer
100
AcDbEntity
  6
CONTINUOUS
100
AcDbCircle
 10
0.9512632940400516
 20
-0.8127707184140032
 30
0.0
 40
0.23102177933876566
100
AcDbArc
 50
-145.88636010895044
 51
-136.98031296824016
  0
ARC
  5
70347985
330
1F
  8
Layer
100
AcDbEntity
  6
CONTINUOUS
100
AcDbCircle
 10
0.8366244372542351
 20
-0.8904268671572158
 30
0.0
 40
0.09255682015129868
100
AcDbArc
 50
-160.14424784063294
 51
-145.8863601089594
  0
ARC
  5
12b0bc21
330
1F
  8
Layer
100
AcDbEntity
  6
CONTINUOUS
100
AcDbCircle
 10
0.7689925622493154
 20
-0.9148502062755568
 30
0.0
 40
0.020650144450286102
100
AcDbArc
 50
169.3904912919034
 51
-160.14424784060486
  0
ARC
  5
8623bcab
330
1F
  8
Layer
100
AcDbEntity
  6
CONTINUOUS
100
AcDbCircle
 10
0.7652734586176342
 20
-0.9141535560964449
 30
0.0
 40
0.016866356230097336
100
AcDbArc
 50
119.21678785274165
 51
169.39049129191335
  0
ARC
  5
6cd21288
330
1F
  8
Layer
100
AcDbEntity
  6
CONTINUOUS
100
AcDbCircle
 10
0.7870810705976012
 20
-0.9531468506578997
 30
0.0
 40
0.0615435199832406
100
AcDbArc
 50
108.5189829207897
 51
119.2167878527073
  0
ARC
  5
b840b2be
330
1F
  8
Layer
100
AcDbEntity
  6
CONTINUOUS
100
AcDbCircle
 10
0.5992191187066429
 20
-0.39230424468149017
 30
0.0
 40
0.5299262946706347
100
AcDbArc
 50
-71.48101707915781
 51
-69.75317319495011
  0
ARC
  5
2bc0b571
330
1F
  8
Layer
100
AcDbEntity
  6
CONTINUOUS
100
AcDbCircle
 10
0.7791480140563172
 20
-0.8801060512000418
 30
0.0
 40
0.00999840560858803
100
AcDbArc
 50
-69.75317319498497
 51
-30.855405704894718
  0
ARC
  5
9f7bde3d
330
1F
  8
Layer
100
AcDbEntity
  6
CONTINUOUS
100
AcDbCircle
 10
0.7821618152344199
 20
-0.8819065895866556
 30
0.0
 40
0.0064877167840409955
100
AcDbArc
 50
-30.855405704935176
 51
14.211021873357709
  0
ARC
  5
ecd56be7
330
1F
  8
Layer
100
AcDbEntity
  6
CONTINUOUS
100
AcDbCircle
 10
0.7629308066543556
 20
-0.8867767193537579
 30
0.0
 40
0.02632580779489465
100
AcDbArc
 50
14.211021873459934
 51
36.14461375892709
  0
ARC
  5
49aba305
330
1F
  8
Layer
100
AcDbEntity
  6
CONTINUOUS
100
AcDbCircle
 10
0.7149113430499412
 20
-0.921850420261993
 30
0.0
 40
0.08579036345838245
100
AcDbArc
 50
36.144613758920585
 51
44.66160067929531
  0
ARC
  5
88e8906c
330
1F
  8
Layer
100
AcDbEntity
  6
CONTINUOUS
100
AcDbCircle
 10
0.671540613222575
 20
-0.9647118413608744
 30
0.0
 40
0.14676676565114863
100
AcDbArc
 50
44.661600679273235
 51
53.160457604620916
  0
ARC
  5
bc0bcf3c
330
1F
  8
Layer
100
AcDbEntity
  6
CONTINUOUS
100
AcDbCircle
 10
0.709596156519759
 20
-0.9139150723937728
 30
0.0
 40
0.08329601559144874
100
AcDbArc
 50
53.16045760462475
 51
73.89927709589706
  0
ARC
  5
ed6f32d8
330
1F
  8
Layer
100
AcDbEntity
  6
CONTINUOUS
100
AcDbCircle
 10
0.6789115502162282
 20
-1.020219350708836
 30
0.0
 40
0.19394024116191858
100
AcDbArc
 50
73.89927709590047
 51
83.16178170681765
  0
ARC
  5
622664b0
330
1F
  8
Layer
100
AcDbEntity
  6
CONTINUOUS
100
AcDbCircle
 10
0.5421399342261437
 20
-2.1607493094020356
 30
0.0
 40
1.3426417087405271
100
AcDbArc
 50
83.16178170682713
 51
84.46996946790456
  0
ARC
  5
62a03a9b
330
1F
  8
Layer
100
AcDbEntity
  6
CONTINUOUS
100
AcDbCircle
 10
0.6782502944679834
 20
-0.7549129229124085
 30
0.0
 40
0.06976827980506965
100
AcDbArc
 50
-113.8604499422474
 51
-95.53003053211073
  0
ARC
  5
decd650a
330
1F
  8
Layer
100
AcDbEntity
  6
CONTINUOUS
100
AcDbCircle
 10
0.6658062406898002
 20
-0.7830469406774945
 30
0.0
 40
0.03900503176393319
100
AcDbArc
 50
-138.85544517651937
 51
-113.86044994220906
  0
ARC
  5
4cc85161
330
1F
  8
Layer
100
AcDbEntity
  6
CONTINUOUS
100
AcDbCircle
 10
0.6682418853580285
 20
-0.780918854756347
 30
0.0
 40
0.04223939640596973
100
AcDbArc
 50
-162.85958119998418
 51
-138.85544517656965
  0
ARC
  5
48a2ff56
330
1F
  8
Layer
100
AcDbEntity
  6
CONTINUOUS
100
AcDbCircle
 10
0.753874823868558
 20
-0.75450858240461
 30
0.0
 40
0.13185246824061275
100
AcDbArc
 50
-166.6168074364767
 51
-162.85958119991085
  0
ARC
  5
87a528aa
330
1F
  8
Layer
100
AcDbEntity
  6
CONTINUOUS
100
AcDbCircle
 10
0.4081100316165722
 20
-0.8367741975329881
 30
0.0
 40
0.2235640803238974
100
AcDbArc
 50
13.38319256348124
 51
22.25236332397914
  0
ARC
  5
c5f78009
330
1F
  8
Layer
100
AcDbEntity
  6
CONTINUOUS
100
AcDbCircle
 10
0.4887234304117205
 20
-0.8037905036248849
 30
0.0
 40
0.13646388440489188
100
AcDbArc
 50
22.252363323948146
 51
32.82288215478729
  0
ARC
  5
a8b7ceba
330
1F
  8
Layer
100
AcDbEntity
  6
CONTINUOUS
100
AcDbCircle
 10
0.5886159152253128
 20
-0.7393577127482078
 30
0.0
 40
0.017593816421435454
100
AcDbArc
 50
32.8228821548347
 51
62.55268863739673
  0
ARC
  5
0e54f110
330
1F
  8
Layer
100
AcDbEntity
  6
CONTINUOUS
100
AcDbCircle
 10
0.593132729471717
 20
-0.730661477644994
 30
0.0
 40
0.007794524819137387
100
AcDbArc
 50
62.552688637420886
 51
140.2253085813999
  0
ARC
  5
a0600579
330
1F
  8
Layer
100
AcDbEntity
  6
CONTINUOUS
100
AcDbCircle
 10
0.6123684455027134
 20
-0.7466736823674853
 30
0.0
 40
0.03282257850495364
100
AcDbArc
 50
140.22530858133192
 51
154.61231615085117
  0
ARC
  5
a470e602
330
1F
  8
Layer
100
AcDbEntity
  6
CONTINUOUS
100
AcDbCircle
 10
0.7857420407393212
 20
-0.8289518520258772
 30
0.0
 40
0.22472906804504592
100
AcDbArc
 50
154.61231615090784
 51
157.5120685233518
  0
ARC
  5
b27375c9
330
1F
  8
Layer
100
AcDbEntity
  6
CONTINUOUS
100
AcDbCircle
 10
0.514306159810167
 20
-0.7165864065232241
 30
0.0
 40
0.06904538761574648
100
AcDbArc
 50
-31.935744293744644
 51
-22.487931476648683
  0
ARC
  5
4139f3b8
330
1F
  8
Layer
100
AcDbEntity
  6
CONTINUOUS
100
AcDbCircle
 10
0.5139673135437508
 20
-0.7163751998919332
 30
0.0
 40
0.06944466826061357
100
AcDbArc
 50
-63.365460694004184
 51
-31.935744293742744
  0
ARC
  5
93cef4f2
330
1F
  8
Layer
100
AcDbEntity
  6
CONTINUOUS
100
AcDbCircle
 10
0.49910510954206955
 20
-0.6867406980124302
 30
0.0
 40
0.1025971766036312
100
AcDbArc
 50
-76.38680220970168
 51
-63.36546069399455
  0
ARC
  5
8df25064
330
1F
  8
Layer
100
AcDbEntity
  6
CONTINUOUS
100
AcDbCircle
 10
0.48106566319174693
 20
-0.6122496445573364
 30
0.0
 40
0.17924141102133437
100
AcDbArc
 50
-84.60812160336852
 51
-76.38680220972593
  0
ARC
  5
c637b9c2
330
1F
  8
Layer
100
AcDbEntity
  6
CONTINUOUS
100
AcDbCircle
 10
0.6481760722787573
 20
-2.3827717795814634
 30
0.0
 40
1.5991495807000071
100
AcDbArc
 50
95.39187839665867
 51
97.1015372178572
  0
ARC
  5
ec15c5e2
330
1F
  8
Layer
100
AcDbEntity
  6
CONTINUOUS
100
AcDbCircle
 10
0.4945762078077063
 20
-1.1498680856664307
 30
0.0
 40
0.3567146983681984
100
AcDbArc
 50
97.1015372178466
 51
105.29515942077826
  0
ARC
  5
07b87dec
330
1F
  8
Layer
100
AcDbEntity
  6
CONTINUOUS
100
AcDbCircle
 10
0.4713816104819397
 20
-1.0650547657256737
 30
0.0
 40
0.268786951982443
100
AcDbArc
 50
105.2951594207916
 51
123.65101279740365
  0
ARC
  5
8d401ab6
330
1F
  8
Layer
100
AcDbEntity
  6
CONTINUOUS
100
AcDbCircle
 10
0.47340964346721925
 20
-1.0681013125226702
 30
0.0
 40
0.2724467832867068
100
AcDbArc
 50
123.65101279740941
 51
129.55715481235814
  0
ARC
  5
45c504e9
330
1F
  8
Layer
100
AcDbEntity
  6
CONTINUOUS
100
AcDbCircle
 10
0.6477911176481601
 20
-1.2792135343310453
 30
0.0
 40
0.5462665574710908
100
AcDbArc
 50
129.55715481233506
 51
133.72725014600817
  0
ARC
  5
7b2ab013
330
1F
  8
Layer
100
AcDbEntity
  6
CONTINUOUS
100
AcDbCircle
 10
-32.404539932431504
 20
33.275157934915406
 30
0.0
 40
47.2706883380336
100
AcDbArc
 50
-46.31220333567783
 51
-46.2727498539162
  0
ARC
  5
85445ae3
330
1F
  8
Layer
100
AcDbEntity
  6
CONTINUOUS
100
AcDbCircle
 10
0.2243233579101911
 20
-0.8835599693408225
 30
0.0
 40
0.03234873467370898
100
AcDbArc
 50
-60.7870006484855
 51
-46.31220333568564
  0
ARC
  5
989df469
330
1F
  8
Layer
100
AcDbEntity
  6
CONTINUOUS
100
AcDbCircle
 10
0.23814777371070472
 20
-0.9082826760235665
 30
0.0
 40
0.00402336269121819
100
AcDbArc
 50
-94.8229716187631
 51
-60.78700064855429
  0
ARC
  5
34d339a5
330
1F
  8
Layer
100
AcDbEntity
  6
CONTINUOUS
100
AcDbCircle
 10
0.23789499239948664
 20
-0.9112785630044022
 30
0.0
 40
0.0010168302710966191
100
AcDbArc
 50
-166.02988961512557
 51
-94.82297161889466
  0
ARC
  5
589b12f8
330
1F
  8
Layer
100
AcDbEntity
  6
CONTINUOUS
100
AcDbCircle
 10
0.2424771519692992
 20
-0.9101386409623886
 30
0.0
 40
0.005738652862542671
100
AcDbArc
 50
158.02463226195817
 51
-166.02988961479062
  0
ARC
  5
b4dfc19a
330
1F
  8
Layer
100
AcDbEntity
  6
CONTINUOUS
100
AcDbCircle
 10
0.4810089627984553
 20
-1.006392481082721
 30
0.0
 40
0.2629588435850958
100
AcDbArc
 50
152.79934557745915
 51
158.02463226192992
  0
ARC
  5
296513ec
330
1F
  8
Layer
100
AcDbEntity
  6
CONTINUOUS
100
AcDbCircle
 10
0.8203488651016801
 20
-1.1807944016858343
 30
0.0
 40
0.6444920652122784
100
AcDbArc
 50
142.43754219551056
 51
152.7993455774675
  0
ARC
  5
7c9f8307
330
1F
  8
Layer
100
AcDbEntity
  6
CONTINUOUS
100
AcDbCircle
 10
0.5775278640971908
 20
-0.9940503927337054
 30
0.0
 40
0.338166481219797
100
AcDbArc
 50
134.05620350415876
 51
142.437542195516
  0
ARC
  5
7b4ae2ac
330
1F
  8
Layer
100
AcDbEntity
  6
CONTINUOUS
100
AcDbCircle
 10
0.47646784608633297
 20
-0.8896049086584756
 30
0.0
 40
0.19283243020605817
100
AcDbArc
 50
128.53985997222463
 51
134.05620350416865
  0
ARC
  5
19699b9a
330
1F
  8
Layer
100
AcDbEntity
  6
CONTINUOUS
100
AcDbCircle
 10
0.44188815512297075
 20
-0.8461943026407057
 30
0.0
 40
0.13733255865709273
100
AcDbArc
 50
122.00219803692399
 51
128.53985997219883
  0
ARC
  5
321682a0
330
1F
  8
Layer
100
AcDbEntity
  6
CONTINUOUS
100
AcDbCircle
 10
-0.23032280866303956
 20
0.2294762861954065
 30
0.0
 40
1.131105376569202
100
AcDbArc
 50
-57.99780196307794
 51
-56.95782913100352
  0
ARC
  5
ad40a0cd
330
1F
  8
Layer
100
AcDbEntity
  6
CONTINUOUS
100
AcDbCircle
 10
0.33844192299392617
 20
-0.6449349405971769
 30
0.0
 40
0.08799065923570942
100
AcDbArc
 50
-56.95782913101265
 51
-43.543714216512186
  0
ARC
  5
e490276f
330
1F
  8
Layer
100
AcDbEntity
  6
CONTINUOUS
100
AcDbCircle
 10
0.3773369116858385
 20
-0.681901346289999
 30
0.0
 40
0.034331221154508686
100
AcDbArc
 50
-43.54371421647873
 51
-24.49279397368482
  0
ARC
  5
f28a964a
330
1F
  8
Layer
100
AcDbEntity
  6
CONTINUOUS
100
AcDbCircle
 10
0.39139822842645877
 20
-0.6883073218738287
 30
0.0
 40
0.018879452593574517
100
AcDbArc
 50
-24.492793973738117
 51
29.055901424031138
  0
ARC
  5
11bd780e
330
1F
  8
Layer
100
AcDbEntity
  6
CONTINUOUS
100
AcDbCircle
 10
0.3755730486869915
 20
-0.6970995573183012
 30
0.0
 40
0.03698303560626749
100
AcDbArc
 50
29.05590142405188
 51
49.832667654073475
  0
ARC
  5
ba589f39
330
1F
  8
Layer
100
AcDbEntity
  6
CONTINUOUS
100
AcDbCircle
 10
0.7659989564473726
 20
-0.2345582088784819
 30
0.0
 40
0.5683077114459599
100
AcDbArc
 50
-132.66159089129414
 51
-130.1673323459234
  0
ARC
  5
36c4c26f
330
1F
  8
Layer
100
AcDbEntity
  6
CONTINUOUS
100
AcDbCircle
 10
0.4462683104502225
 20
-0.5815133795179948
 30
0.0
 40
0.09649675733059854
100
AcDbArc
 50
-145.5808606466005
 51
-132.6615908913099
  0
ARC
  5
1fcdd4e5
330
1F
  8
Layer
100
AcDbEntity
  6
CONTINUOUS
100
AcDbCircle
 10
0.4008788112914674
 20
-0.6126144939561315
 30
0.0
 40
0.0414741623974546
100
AcDbArc
 50
171.29846246527052
 51
-145.58086064660543
  0
ARC
  5
eb9945e2
330
1F
  8
Layer
100
AcDbEntity
  6
CONTINUOUS
100
AcDbCircle
 10
0.4180666185839923
 20
-0.6152450700985532
 30
0.0
 40
0.058862107945048106
100
AcDbArc
 50
148.96350910956025
 51
171.298462465293
  0
ARC
  5
c5813c7a
330
1F
  8
Layer
100
AcDbEntity
  6
CONTINUOUS
100
AcDbCircle
 10
0.534352235693127
 20
-0.6852173556776868
 30
0.0
 40
0.19457675525925772
100
AcDbArc
 50
129.22356725001322
 51
148.96350910954487
  0
ARC
  5
c23e8772
330
1F
  8
Layer
100
AcDbEntity
  6
CONTINUOUS
100
AcDbCircle
 10
0.9369658295152934
 20
-1.1784560307167664
 30
0.0
 40
0.831272990904409
100
AcDbArc
 50
127.49855758018373
 51
129.22356725002348
  0
ARC
  5
86bd282c
330
1F
  8
Layer
100
AcDbEntity
  6
CONTINUOUS
100
AcDbCircle
 10
0.4053415858102918
 20
-0.48559371198728285
 30
0.0
 40
0.042043978591839413
100
AcDbArc
 50
-52.50144241985517
 51
-34.037946421359855
  0
ARC
  5
7b82f7a4
330
1F
  8
Layer
100
AcDbEntity
  6
CONTINUOUS
100
AcDbCircle
 10
0.4275474483320696
 20
-0.5005931626639171
 30
0.0
 40
0.015246891978984002
100
AcDbArc
 50
-34.03794642133128
 51
-2.535323288590684
  0
ARC
  5
69b4104d
330
1F
  8
Layer
100
AcDbEntity
  6
CONTINUOUS
100
AcDbCircle
 10
0.4309550557337116
 20
-0.5007440468939748
 30
0.0
 40
0.011835945738627085
100
AcDbArc
 50
-2.53532328852518
 51
33.35482994709399
  0
ARC
  5
b1c43e9c
330
1F
  8
Layer
100
AcDbEntity
  6
CONTINUOUS
100
AcDbCircle
 10
0.41983264103589923
 20
-0.508065353738888
 30
0.0
 40
0.025151712431817828
100
AcDbArc
 50
33.35482994703892
 51
57.11751135099146
  0
ARC
  5
09c5d016
330
1F
  8
Layer
100
AcDbEntity
  6
CONTINUOUS
100
AcDbCircle
 10
0.34635784579825657
 20
-0.6217162436301311
 30
0.0
 40
0.16048489501571042
100
AcDbArc
 50
57.11751135100654
 51
66.46784563862322
  0
ARC
  5
3493d966
330
1F
  8
Layer
100
AcDbEntity
  6
CONTINUOUS
100
AcDbCircle
 10
0.2908132539685073
 20
-0.7492642651126562
 30
0.0
 40
0.2996024692672761
100
AcDbArc
 50
66.46784563859538
 51
69.7551719407642
  0
ARC
  5
76634cb7
330
1F
  8
Layer
100
AcDbEntity
  6
CONTINUOUS
100
AcDbCircle
 10
0.4227237657612386
 20
-0.39160575780614315
 30
0.0
 40
0.08160612319903085
100
AcDbArc
 50
-122.3344256459967
 51
-110.24482805919997
  0
ARC
  5
6f1901a6
330
1F
  8
Layer
100
AcDbEntity
  6
CONTINUOUS
100
AcDbCircle
 10
0.4102197347702301
 20
-0.41135889191946684
 30
0.0
 40
0.058227990289770035
100
AcDbArc
 50
-143.42738131108374
 51
-122.33442564600621
  0
ARC
  5
33fffd4d
330
1F
  8
Layer
100
AcDbEntity
  6
CONTINUOUS
100
AcDbCircle
 10
0.3882116037582266
 20
-0.42768725971026256
 30
0.0
 40
0.030824095943290757
100
AcDbArc
 50
155.3933381301073
 51
-143.4273813110856
  0
ARC
  5
9ac0ea86
330
1F
  8
Layer
100
AcDbEntity
  6
CONTINUOUS
100
AcDbCircle
 10
0.39832382081748285
 20
-0.4323184164460876
 30
0.0
 40
0.04194635050634022
100
AcDbArc
 50
129.7485342673921
 51
155.39333813010407
  0
ARC
  5
8b183f4b
330
1F
  8
Layer
100
AcDbEntity
  6
CONTINUOUS
100
AcDbCircle
 10
0.4354109712575889
 20
-0.47691318840004615
 30
0.0
 40
0.09994764715902404
100
AcDbArc
 50
113.21610717098513
 51
129.7485342673993
  0
ARC
  5
678f45fb
330
1F
  8
Layer
100
AcDbEntity
  6
CONTINUOUS
100
AcDbCircle
 10
0.07926731449878766
 20
0.3533874972136284
 30
0.0
 40
0.8035110031288951
100
AcDbArc
 50
-66.78389282903541
 51
-65.80760102555853
  0
ARC
  5
0c456cd7
330
1F
  8
Layer
100
AcDbEntity
  6
CONTINUOUS
100
AcDbCircle
 10
0.3850933945389583
 20
-0.3273479091609348
 30
0.0
 40
0.057233384058968155
100
AcDbArc
 50
-65.80760102554302
 51
-52.20093342173073
  0
ARC
  5
9fe09290
330
1F
  8
Layer
100
AcDbEntity
  6
CONTINUOUS
100
AcDbCircle
 10
0.39596901999345224
 20
-0.34136915267302226
 30
0.0
 40
0.039488680661850406
100
AcDbArc
 50
-52.20093342176078
 51
-30.556110198874613
  0
ARC
  5
a223d820
330
1F
  8
Layer
100
AcDbEntity
  6
CONTINUOUS
100
AcDbCircle
 10
0.422385207505078
 20
-0.35696434205063876
 30
0.0
 40
0.008812551597492424
100
AcDbArc
 50
-30.5561101987922
 51
16.283766989311918
  0
ARC
  5
beb100ac
330
1F
  8
Layer
100
AcDbEntity
  6
CONTINUOUS
100
AcDbCircle
 10
0.4227430138820887
 20
-0.35685982217663326
 30
0.0
 40
0.00843979187932053
100
AcDbArc
 50
16.28376698924259
 51
62.30532301629557
  0
ARC
  5
bee0db00
330
1F
  8
Layer
100
AcDbEntity
  6
CONTINUOUS
100
AcDbCircle
 10
0.40672225091972436
 20
-0.38738176837763216
 30
0.0
 40
0.0429108528695619
100
AcDbArc
 50
62.30532301628389
 51
82.27196924086849
  0
ARC
  5
8f3c3f92
330
1F
  8
Layer
100
AcDbEntity
  6
CONTINUOUS
100
AcDbCircle
 10
0.3913307662640326
 20
-0.5008017134738212
 30
0.0
 40
0.15737037298706452
100
AcDbArc
 50
82.27196924090205
 51
86.58836293964022
  0
ARC
  5
4a218fdd
330
1F
  8
Layer
100
AcDbEntity
  6
CONTINUOUS
100
AcDbCircle
 10
0.4142364180188478
 20
-0.1165739255948044
 30
0.0
 40
0.2275395669478711
100
AcDbArc
 50
-105.36635873539925
 51
-93.41163706037091
  0
ARC
  5
635be705
330
1F
  8
Layer
100
AcDbEntity
  6
CONTINUOUS
100
AcDbCircle
 10
0.434817158099859
 20
-0.04168429838978627
 30
0.0
 40
0.30520566717949543
100
AcDbArc
 50
-118.0742452841537
 51
-105.36635873539463
  0
ARC
  5
f6757e07
330
1F
  8
Layer
100
AcDbEntity
  6
CONTINUOUS
100
AcDbCircle
 10
0.612653585138657
 20
0.291734359177259
 30
0.0
 40
0.6830863308760344
100
AcDbArc
 50
-126.55897851658358
 51
-118.07424528416043
  0
ARC
  5
4a98a263
330
1F
  8
Layer
100
AcDbEntity
  6
CONTINUOUS
100
AcDbCircle
 10
1.0061636459069347
 20
0.8223894162490473
 30
0.0
 40
1.3437261400926104
100
AcDbArc
 50
-130.2691125391336
 51
-126.55897851658095
  0
ARC
  5
2d16845d
330
1F
  8
Layer
100
AcDbEntity
  6
CONTINUOUS
100
AcDbCircle
 10
-3.918752499170523
 20
-4.99122287575362
 30
0.0
 40
6.275518370865751
100
AcDbArc
 50
49.730887460871685
 51
50.52517611158966
  0
ARC
  5
e7d78af4
330
1F
  8
Layer
100
AcDbEntity
  6
CONTINUOUS
100
AcDbCircle
 10
-1.0620369980104019
 20
-1.5226457036683516
 30
0.0
 40
1.7819840098889073
100
AcDbArc
 50
50.52517611158533
 51
52.58668203086451
  0
ARC
  5
ee5002a6
330
1F
  8
Layer
100
AcDbEntity
  6
CONTINUOUS
100
AcDbCircle
 10
0.1427903924210281
 20
0.052444191154827235
 30
0.0
 40
0.20107353277290502
100
AcDbArc
 50
-137.2647689543684
 51
-127.41331796912657
  0
ARC
  5
3371a4e3
330
1F
  8
Layer
100
AcDbEntity
  6
CONTINUOUS
100
AcDbCircle
 10
0.08847795872744602
 20
0.002264250555256586
 30
0.0
 40
0.1271285066230934
100
AcDbArc
 50
-153.80897346136553
 51
-137.2647689543815
  0
ARC
  5
f933f045
330
1F
  8
Layer
100
AcDbEntity
  6
CONTINUOUS
100
AcDbCircle
 10
0.01121065185014758
 20
-0.03574094772347758
 30
0.0
 40
0.04102025029260835
100
AcDbArc
 50
176.84730777727495
 51
-153.8089734613336
  0
ARC
  5
0d15ea9f
330
1F
  8
Layer
100
AcDbEntity
  6
CONTINUOUS
100
AcDbCircle
 10
0.0019872972409840095
 20
-0.03523292110431475
 30
0.0
 40
0.031782915109117564
100
AcDbArc
 50
132.67150684226223
 51
176.8473077772406
  0
ARC
  5
1a5aa39e
330
1F
  8
Layer
100
AcDbEntity
  6
CONTINUOUS
100
AcDbCircle
 10
0.02228631487991284
 20
-0.05725271738290072
 30
0.0
 40
0.06173156358039222
100
AcDbArc
 50
110.82140031923448
 51
132.67150684227386
  0
ARC
  5
805694d0
330
1F
  8
Layer
100
AcDbEntity
  6
CONTINUOUS
100
AcDbCircle
 10
0.03806525380452519
 20
-0.09874437658833268
 30
0.0
 40
0.10612224612984555
100
AcDbArc
 50
92.93778797000964
 51
110.82140031923618
  0
ARC
  5
0483d302
330
1F
  8
Layer
100
AcDbEntity
  6
CONTINUOUS
100
AcDbCircle
 10
0.04679583509000884
 20
-0.2688679591167802
 30
0.0
 40
0.2764697039385723
100
AcDbArc
 50
78.82876762967156
 51
92.93778797000154
  0
ARC
  5
3fcf56d1
330
1F
  8
Layer
100
AcDbEntity
  6
CONTINUOUS
100
AcDbCircle
 10
0.025622565799535257
 20
-0.37608328396973745
 30
0.0
 40
0.38575571958454635
100
AcDbArc
 50
64.69585781206823
 51
78.82876762967733
  0
ARC
  5
4dc525dc
330
1F
  8
Layer
100
AcDbEntity
  6
CONTINUOUS
100
AcDbCircle
 10
-0.03873205009757075
 20
-0.5122010559784742
 30
0.0
 40
0.5363198734987049
100
AcDbArc
 50
43.46654516999279
 51
64.69585781207087
  0
ARC
  5
6135ea83
330
1F
  8
Layer
100
AcDbEntity
  6
CONTINUOUS
100
AcDbCircle
 10
-0.07465371232164264
 20
-0.5462495998404726
 30
0.0
 40
0.5858140060404796
100
AcDbArc
 50
31.346933135866152
 51
43.466545169986134
  0
ARC
  5
d6891134
330
1F
  8
Layer
100
AcDbEntity
  6
CONTINUOUS
100
AcDbCircle
 10
-0.3745226231969989
 20
-0.7289093619996325
 30
0.0
 40
0.9369350000320281
100
AcDbArc
 50
24.54265513655584
 51
31.346933135870962
  0
ARC
  5
89e0bf3a
330
1F
  8
Layer
100
AcDbEntity
  6
CONTINUOUS
100
AcDbCircle
 10
-0.7217817682292278
 20
-0.8874767949090987
 30
0.0
 40
1.318684321692215
100
AcDbArc
 50
20.750261233614452
 51
24.54265513655288
  0
ARC
  5
42f830ef
330
1F
  8
Layer
100
AcDbEntity
  6
CONTINUOUS
100
AcDbCircle
 10
-44.84671718992122
 20
-17.605149435254248
 30
0.0
 40
48.504386652782266
100
AcDbArc
 50
20.637288510139285
 51
20.750261233608196
  0
ARC
  5
87192998
330
1F
  8
Layer
100
AcDbEntity
  6
CONTINUOUS
100
AcDbCircle
 10
2.564558301331922
 20
0.250801009131856
 30
0.0
 40
2.1578676395395178
100
AcDbArc
 50
-159.36271148987052
 51
-156.54289793821488
  0
ARC
  5
94d50270
330
1F
  8
Layer
100
AcDbEntity
  6
CONTINUOUS
100
AcDbCircle
 10
1.0830853559154077
 20
-0.392043289468871
 30
0.0
 40
0.5429339318460592
100
AcDbArc
 50
-156.5428979382141
 51
-147.72758478821999
  0
ARC
  5
11c01fee
330
1F
  8
Layer
100
AcDbEntity
  6
CONTINUOUS
100
AcDbCircle
 10
0.945609913144559
 20
-0.4788590468048397
 30
0.0
 40
0.3803409643263709
100
AcDbArc
 50
-147.72758478822044
 51
-137.9087628062435
  0
ARC
  5
d730af72
330
1F
  8
Layer
100
AcDbEntity
  6
CONTINUOUS
100
AcDbCircle
 10
0.8668808647194384
 20
-0.5499743325691646
 30
0.0
 40
0.2742483305798817
100
AcDbArc
 50
-137.90876280624863
 51
-115.23889583035132
  0
ARC
  5
e7e9660a
330
1F
  8
Layer
100
AcDbEntity
  6
CONTINUOUS
100
AcDbCircle
 10
1.2429525917790343
 20
0.24781253942214532
 30
0.0
 40
1.1562312312164336
100
AcDbArc
 50
-115.23889583034567
 51
-110.72069207557519
  0
ARC
  5
e3515340
330
1F
  8
Layer
100
AcDbEntity
  6
CONTINUOUS
100
AcDbCircle
 10
0.9138789537379894
 20
-0.6221053137705963
 30
0.0
 40
0.22615245468347941
100
AcDbArc
 50
-110.72069207559373
 51
-102.50024900383235
  0
ARC
  5
11bea8c5
330
1F
  8
Layer
100
AcDbEntity
  6
CONTINUOUS
100
AcDbCircle
 10
0.8838472532943715
 20
-0.7575667743397181
 30
0.0
 40
0.08740192195997998
100
AcDbArc
 50
-102.50024900382047
 51
-88.66920291348251
  0
ARC
  5
4769e908
330
1F
  8
Layer
100
AcDbEntity
  6
CONTINUOUS
100
AcDbCircle
 10
0.8855931829018155
 20
-0.8327220397221076
 30
0.0
 40
0.012226379495083192
100
AcDbArc
 50
-88.66920291345654
 51
-51.11005919632571
  0
ARC
  5
f05a0748
330
1F
  8
Layer
100
AcDbEntity
  6
CONTINUOUS
100
AcDbCircle
 10
0.8875263725676916
 20
-0.8351187288159883
 30
0.0
 40
0.009147200887568156
100
AcDbArc
 50
-51.11005919635967
 51
9.629250781396351
  0
ARC
  5
c91602f5
330
1F
  8
Layer
100
AcDbEntity
  6
CONTINUOUS
100
AcDbCircle
 10
0.8473866395399607
 20
-0.8419289367657379
 30
0.0
 40
0.0498605537322597
100
AcDbArc
 50
9.629250781424773
 51
24.835407687004196
  0
ARC
  5
f7f95b1f
330
1F
  8
Layer
100
AcDbEntity
  6
CONTINUOUS
100
AcDbCircle
 10
0.7905677867623453
 20
-0.8682255544638442
 30
0.0
 40
0.11246961164982267
100
AcDbArc
 50
24.835407687008527
 51
35.99694254904648
  0
ARC
  5
8fe8979a
330
1F
  8
Layer
100
AcDbEntity
  6
CONTINUOUS
100
AcDbCircle
 10
0.3526242514968603
 20
-1.1863744532069924
 30
0.0
 40
0.6537766057412608
100
AcDbArc
 50
35.9969425490407
 51
40.620302768516716
  0
ARC
  5
ad15e85b
330
1F
  8
Layer
100
AcDbEntity
  6
CONTINUOUS
100
AcDbCircle
 10
-0.4303016786193441
 20
-1.8579045178381424
 30
0.0
 40
1.6852443171854148
100
AcDbArc
 50
40.6203027685134
 51
41.884306766756914
  0
ARC
  5
3359537e
330
1F
  8
Layer
100
AcDbEntity
  6
CONTINUOUS
100
AcDbCircle
 10
1.2873334202078766
 20
-0.31760767925908384
 30
0.0
 40
0.6218717795162313
100
AcDbArc
 50
-141.54152757397398
 51
-138.1156932332423
  0
ARC
  5
b8a5e7ee
330
1F
  8
Layer
100
AcDbEntity
  6
CONTINUOUS
100
AcDbCircle
 10
1.3054709425789903
 20
-0.3032018937910579
 30
0.0
 40
0.6450341708589536
100
AcDbArc
 50
-151.45862786391012
 51
-141.54152757397244
  0
ARC
  5
156a4ca1
330
1F
  8
Layer
100
AcDbEntity
  6
CONTINUOUS
100
AcDbCircle
 10
1.0670663239487055
 20
-0.4328680241128342
 30
0.0
 40
0.37364871152688983
100
AcDbArc
 50
-164.5005033128477
 51
-151.4586278639103
  0
ARC
  5
998ac4be
330
1F
  8
Layer
100
AcDbEntity
  6
CONTINUOUS
100
AcDbCircle
 10
0.9884504526478757
 20
-0.4546693910673649
 30
0.0
 40
0.2920659019315184
100
AcDbArc
 50
-177.29670745755547
 51
-164.5005033128472
  0
ARC
  5
175e4051
330
1F
  8
Layer
100
AcDbEntity
  6
CONTINUOUS
100
AcDbCircle
 10
0.9201360169921946
 20
-0.4578949525507532
 30
0.0
 40
0.22367535897536547
100
AcDbArc
 50
162.4715907703256
 51
-177.29670745755325
  0
ARC
  5
f8f28dc4
330
1F
  8
Layer
100
AcDbEntity
  6
CONTINUOUS
100
AcDbCircle
 10
0.8361604718366458
 20
-0.43137178035563806
 30
0.0
 40
0.1356107755864494
100
AcDbArc
 50
133.67506540287047
 51
162.47159077031353
  0
ARC
  5
33a550fc
330
1F
  8
Layer
100
AcDbEntity
  6
CONTINUOUS
100
AcDbCircle
 10
0.804298290992481
 20
-0.39800084936257263
 30
0.0
 40
0.08947166415709726
100
AcDbArc
 50
98.02229636954627
 51
133.67506540288142
  0
ARC
  5
61d2b6f1
330
1F
  8
Layer
100
AcDbEntity
  6
CONTINUOUS
100
AcDbCircle
 10
0.8044933309566682
 20
-0.3993847230962524
 30
0.0
 40
0.09086921454917574
100
AcDbArc
 50
65.42099861782728
 51
98.02229636954154
  0
ARC
  5
db909213
330
1F
  8
Layer
100
AcDbEntity
  6
CONTINUOUS
100
AcDbCircle
 10
0.7500286508301581
 20
-0.5184611831839685
 30
0.0
 40
0.22181044078562231
100
AcDbArc
 50
55.943328675010314
 51
65.42099861782076
  0
ARC
  5
1043abf9
330
1F
  8
Layer
100
AcDbEntity
  6
CONTINUOUS
100
AcDbCircle
 10
0.718648011372748
 20
-0.5648857785906338
 30
0.0
 40
0.2778460329697744
100
AcDbArc
 50
45.98654712080136
 51
55.943328675020425
  0
ARC
  5
999048fc
330
1F
  8
Layer
100
AcDbEntity
  6
CONTINUOUS
100
AcDbCircle
 10
0.5132425114902508
 20
-0.7774894793874052
 30
0.0
 40
0.5734669946326121
100
AcDbArc
 50
39.06051163072223
 51
45.98654712080221
  0
ARC
  5
d94f5e42
330
1F
  8
Layer
100
AcDbEntity
  6
CONTINUOUS
100
AcDbCircle
 10
0.32641487857423357
 20
-0.9291064955166515
 30
0.0
 40
0.8140751491098415
100
AcDbArc
 50
34.66801806009391
 51
39.060511630728655
  0
ARC
  5
547d6693
330
1F
  8
Layer
100
AcDbEntity
  6
CONTINUOUS
100
AcDbCircle
 10
-6.00022602541683
 20
-5.304657689072228
 30
0.0
 40
8.50639816465453
100
AcDbArc
 50
33.93995816192508
 51
34.668018060086915
  0
ARC
  5
fb420ee1
330
1F
  8
Layer
100
AcDbEntity
  6
CONTINUOUS
100
AcDbCircle
 10
3.1388434615424936
 20
0.8457980613730733
 30
0.0
 40
2.5095310755710374
100
AcDbArc
 50
-146.06004183807823
 51
-143.54216035575325
  0
ARC
  5
a1e9fbf2
330
1F
  8
Layer
100
AcDbEntity
  6
CONTINUOUS
100
AcDbCircle
 10
1.6200447336186972
 20
-0.2763253036521087
 30
0.0
 40
0.6211692399372054
100
AcDbArc
 50
-143.54216035575215
 51
-135.58822088013576
  0
ARC
  5
de1322b1
330
1F
  8
Layer
100
AcDbEntity
  6
CONTINUOUS
100
AcDbCircle
 10
1.4789081838209508
 20
-0.4145932765658962
 30
0.0
 40
0.4235899950188699
100
AcDbArc
 50
-135.58822088013446
 51
-124.71992157849623
  0
ARC
  5
6ca4fc6d
330
1F
  8
Layer
100
AcDbEntity
  6
CONTINUOUS
100
AcDbCircle
 10
1.3743633428900341
 20
-0.565463093525661
 30
0.0
 40
0.24003802571659397
100
AcDbArc
 50
-124.71992157850025
 51
-104.16198816539769
  0
ARC
  5
25ebbfc7
330
1F
  8
Layer
100
AcDbEntity
  6
CONTINUOUS
100
AcDbCircle
 10
1.3734421808699782
 20
-0.5691136728080399
 30
0.0
 40
0.23627301993118985
100
AcDbArc
 50
-104.16198816539124
 51
-93.54692505488994
  0
ARC
  5
96891c7f
330
1F
  8
Layer
100
AcDbEntity
  6
CONTINUOUS
100
AcDbCircle
 10
1.369854665618045
 20
-0.6269910841645892
 30
0.0
 40
0.17828452959889934
100
AcDbArc
 50
-93.54692505489446
 51
-84.33115857474893
  0
ARC
  5
cb8b9ce9
330
1F
  8
Layer
100
AcDbEntity
  6
CONTINUOUS
100
AcDbCircle
 10
1.3808727075601783
 20
-0.7379883752712348
 30
0.0
 40
0.06674173117043981
100
AcDbArc
 50
-84.33115857477195
 51
-68.98413795315874
  0
ARC
  5
f995feed
330
1F
  8
Layer
100
AcDbEntity
  6
CONTINUOUS
100
AcDbCircle
 10
1.401667367559608
 20
-0.7921155229328567
 30
0.0
 40
0.008757543683893799
100
AcDbArc
 50
-68.98413795314623
 51
10.831054668096765
  0
ARC
  5
ea4f7e0a
330
1F
  8
Layer
100
AcDbEntity
  6
CONTINUOUS
100
AcDbCircle
 10
1.3940038664679955
 20
-0.7935817192111363
 30
0.0
 40
0.016560042034267503
100
AcDbArc
 50
10.831054668166315
 51
40.8281990386234
  0
ARC
  5
5a070f23
330
1F
  8
Layer
100
AcDbEntity
  6
CONTINUOUS
100
AcDbCircle
 10
1.2966747359828543
 20
-0.8776775992605248
 30
0.0
 40
0.14518770889592988
100
AcDbArc
 50
40.82819903859056
 51
50.85653212812095
  0
ARC
  5
70a1b282
330
1F
  8
Layer
100
AcDbEntity
  6
CONTINUOUS
100
AcDbCircle
 10
1.1647137149755726
 20
-1.0398041363097297
 30
0.0
 40
0.35423010909467306
100
AcDbArc
 50
50.85653212812088
 51
55.610594216415
  0
ARC
  5
4a6e9248
330
1F
  8
Layer
100
AcDbEntity
  6
CONTINUOUS
100
AcDbCircle
 10
1.8129937010825719
 20
-0.09263944858308548
 30
0.0
 40
0.7935450805932734
100
AcDbArc
 50
-126.51108119081482
 51
-124.38940578359197
  0
ARC
  5
3a6b405f
330
1F
  8
Layer
100
AcDbEntity
  6
CONTINUOUS
100
AcDbCircle
 10
1.462599231111423
 20
-0.565978913492519
 30
0.0
 40
0.2046252782202243
100
AcDbArc
 50
-137.9852385321106
 51
-126.51108119079454
  0
ARC
  5
3fa21ea5
330
1F
  8
Layer
100
AcDbEntity
  6
CONTINUOUS
100
AcDbCircle
 10
1.576547429843855
 20
-0.46332632432134857
 30
0.0
 40
0.3579932868071232
100
AcDbArc
 50
-152.92625483320694
 51
-137.9852385321168
  0
ARC
  5
675b003b
330
1F
  8
Layer
100
AcDbEntity
  6
CONTINUOUS
100
AcDbCircle
 10
1.5640827977430518
 20
-0.4696975931142118
 30
0.0
 40
0.34399471118532177
100
AcDbArc
 50
-175.06433327926186
 51
-152.9262548332103
  0
ARC
  5
0958a9e8
330
1F
  8
Layer
100
AcDbEntity
  6
CONTINUOUS
100
AcDbCircle
 10
1.4536370804920506
 20
-0.47923539282024197
 30
0.0
 40
0.23313792933450103
100
AcDbArc
 50
164.47353665195655
 51
-175.06433327926035
  0
ARC
  5
abed96a5
330
1F
  8
Layer
100
AcDbEntity
  6
CONTINUOUS
100
AcDbCircle
 10
1.4189331074978282
 20
-0.4695938655489742
 30
0.0
 40
0.19711953417721612
100
AcDbArc
 50
138.39272141182354
 51
164.47353665195888
  0
ARC
  5
89e017f9
330
1F
  8
Layer
100
AcDbEntity
  6
CONTINUOUS
100
AcDbCircle
 10
1.3562675110540734
 20
-0.4139425080228436
 30
0.0
 40
0.11330992510908613
100
AcDbArc
 50
111.88265211994188
 51
138.3927214118228
  0
ARC
  5
3d075cd3
330
1F
  8
Layer
100
AcDbEntity
  6
CONTINUOUS
100
AcDbCircle
 10
1.360626345587957
 20
-0.424794943146533
 30
0.0
 40
0.125005000423408
100
AcDbArc
 50
90.01661562810509
 51
111.88265211995464
  0
ARC
  5
04cf19ee
330
1F
  8
Layer
100
AcDbEntity
  6
CONTINUOUS
100
AcDbCircle
 10
1.3606826563289622
 20
-0.618971636137674
 30
0.0
 40
0.31918170157953374
100
AcDbArc
 50
80.79468313588146
 51
90.01661562808314
  0
ARC
  5
17f15433
330
1F
  8
Layer
100
AcDbEntity
  6
CONTINUOUS
100
AcDbCircle
 10
1.3228142168965202
 20
-0.8526410486266716
 30
0.0
 40
0.5558997047774352
100
AcDbArc
 50
76.50908486693326
 51
80.7946831358885
  0
ARC
  5
2147cde2
330
1F
  8
Layer
100
AcDbEntity
  6
CONTINUOUS
100
AcDbCircle
 10
1.874732610152775
 20
1.4478714019105738
 30
0.0
 40
1.8098922234976278
100
AcDbArc
 50
-103.49091513306503
 51
-101.04677232624212
  0
ARC
  5
98fd0682
330
1F
  8
Layer
100
AcDbEntity
  6
CONTINUOUS
100
AcDbCircle
 10
1.6366751092540592
 20
0.22848706344538927
 30
0.0
 40
0.56748748323449
100
AcDbArc
 50
-101.0467723262419
 51
-94.97089918484279
  0
ARC
  5
2e25f6bd
330
1F
  8
Layer
100
AcDbEntity
  6
CONTINUOUS
100
AcDbCircle
 10
1.621394767718966
 20
0.052804294003115926
 30
0.0
 40
0.391141447508319
100
AcDbArc
 50
-94.97089918484636
 51
-84.75809272820165
  0
ARC
  5
36f709c0
330
1F
  8
Layer
100
AcDbEntity
  6
CONTINUOUS
100
AcDbCircle
 10
1.614545385035371
 20
0.1274613145564445
 30
0.0
 40
0.4661120068035942
100
AcDbArc
 50
-84.75809272819971
 51
-74.51266709374389
  0
ARC
  5
6dcf706a
330
1F
  8
Layer
100
AcDbEntity
  6
CONTINUOUS
100
AcDbCircle
 10
1.646846360074673
 20
0.01088768793503947
 30
0.0
 40
0.3451460470787348
100
AcDbArc
 50
-74.51266709374559
 51
-51.27771944283054
  0
ARC
  5
9e26fbf1
330
1F
  8
Layer
100
AcDbEntity
  6
CONTINUOUS
100
AcDbCircle
 10
1.6183809235519762
 20
0.04639005894620696
 30
0.0
 40
0.3906509855342721
100
AcDbArc
 50
-51.27771944282386
 51
-44.14484296656237
  0
ARC
  5
71fb017b
330
1F
  8
Layer
100
AcDbEntity
  6
CONTINUOUS
100
AcDbCircle
 10
1.5491279134201468
 20
0.1136060758507742
 30
0.0
 40
0.48715990916744883
100
AcDbArc
 50
-44.14484296656341
 51
-32.653628453314354
  0
ARC
  5
e5717758
330
1F
  8
Layer
100
AcDbEntity
  6
CONTINUOUS
100
AcDbCircle
 10
1.872246832083407
 20
-0.09346348112685776
 30
0.0
 40
0.10338440574777097
100
AcDbArc
 50
-32.65362845329703
 51
-25.471662209914967
  0
ARC
  5
5d008682
330
1F
  8
Layer
100
AcDbEntity
  6
CONTINUOUS
100
AcDbCircle
 10
1.7226365713599454
 20
-0.022193855679265795
 30
0.0
 40
0.2691028103538443
100
AcDbArc
 50
-25.471662209939126
 51
-18.113745300721767
  0
ARC
  5
f4aa8ed1
330
1F
  8
Layer
100
AcDbEntity
  6
CONTINUOUS
100
AcDbCircle
 10
1.832548838232842
 20
-0.05814790930590896
 30
0.0
 40
0.15345939125303099
100
AcDbArc
 50
-18.113745300714715
 51
-6.274921702674171
  0
ARC
  5
64790690
330
1F
  8
Layer
100
AcDbEntity
  6
CONTINUOUS
100
AcDbCircle
 10
1.960228424975569
 20
-0.07218730328307998
 30
0.0
 40
0.02501025169172536
100
AcDbArc
 50
-6.274921702662437
 51
23.326617152132865
  0
ARC
  5
82018166
330
1F
  8
Layer
100
AcDbEntity
  6
CONTINUOUS
100
AcDbCircle
 10
1.971464238693957
 20
-0.06734220838226279
 30
0.0
 40
0.01277430242277835
100
AcDbArc
 50
23.326617152120818
 51
96.05500350527171
  0
ARC
  5
aa1de55a
330
1F
  8
Layer
100
AcDbEntity
  6
CONTINUOUS
100
AcDbCircle
 10
2.0031757151806175
 20
-0.3662957525764101
 30
0.0
 40
0.3134050382553041
100
AcDbArc
 50
96.05500350528551
 51
99.01672016274372
  0
ARC
  5
af2e6611
330
1F
  8
Layer
100
AcDbEntity
  6
CONTINUOUS
100
AcDbCircle
 10
-0.05600127882653472
 20
12.610325891300079
 30
0.0
 40
12.825579670654745
100
AcDbArc
 50
-81.28069286056451
 51
-80.9832798372581
  0
ARC
  5
ff0defac
330
1F
  8
Layer
100
AcDbEntity
  6
CONTINUOUS
100
AcDbCircle
 10
1.7029169073219277
 20
1.1415924163586149
 30
0.0
 40
1.2227506748965664
100
AcDbArc
 50
-84.49166695970092
 51
-81.28069286055445
  0
ARC
  5
3179f838
330
1F
  8
Layer
100
AcDbEntity
  6
CONTINUOUS
100
AcDbCircle
 10
1.719669352992354
 20
0.9678764403154911
 30
0.0
 40
1.0482288001399747
100
AcDbArc
 50
-91.031260023434
 51
-84.49166695969888
  0
ARC
  5
759ac3f6
330
1F
  8
Layer
100
AcDbEntity
  6
CONTINUOUS
100
AcDbCircle
 10
1.7088696717031542
 20
0.36792170249577727
 30
0.0
 40
0.44817686859715505
100
AcDbArc
 50
-101.03979685414355
 51
-91.03126002343191
  0
ARC
  5
94227445
330
1F
  8
Layer
100
AcDbEntity
  6
CONTINUOUS
100
AcDbCircle
 10
1.6825214925679963
 20
0.23287294743761033
 30
0.0
 40
0.31058183675915874
100
AcDbArc
 50
-115.17020801515076
 51
-101.03979685414293
  0
ARC
  5
cb74f923
330
1F
  8
Layer
100
AcDbEntity
  6
CONTINUOUS
100
AcDbCircle
 10
1.625700114655898
 20
0.11195821808781448
 30
0.0
 40
0.17698153450813847
100
AcDbArc
 50
-133.92526310780852
 51
-115.1702080151538
  0
ARC
  5
655bf628
330
1F
  8
Layer
100
AcDbEntity
  6
CONTINUOUS
100
AcDbCircle
 10
1.6017873550179258
 20
0.08713110339625119
 30
0.0
 40
0.14251117481446166
100
AcDbArc
 50
-169.44126869922476
 51
-133.92526310780633
  0
ARC
  5
661eee65
330
1F
  8
Layer
100
AcDbEntity
  6
CONTINUOUS
100
AcDbCircle
 10
1.6627019653474917
 20
0.09848555706863382
 30
0.0
 40
0.20447498174884168
100
AcDbArc
 50
175.55885524464045
 51
-169.44126869922053
  0
ARC
  5
75d4b0d3
330
1F
  8
Layer
100
AcDbEntity
  6
CONTINUOUS
100
AcDbCircle
 10
1.745986534420349
 20
0.09201699369583438
 30
0.0
 40
0.2880103739952395
100
AcDbArc
 50
162.12624078969313
 51
175.558855244641
  0
ARC
  5
c20ac27a
330
1F
  8
Layer
100
AcDbEntity
  6
CONTINUOUS
100
AcDbCircle
 10
2.0593324237546913
 20
-0.009032514321403617
 30
0.0
 40
0.6172468383081328
100
AcDbArc
 50
152.96185907564785
 51
162.12624078969287
  0
ARC
  5
02bf7b45
330
1F
  8
Layer
100
AcDbEntity
  6
CONTINUOUS
100
AcDbCircle
 10
2.2696190596792487
 20
-0.11635529373228604
 30
0.0
 40
0.8533371774348006
100
AcDbArc
 50
146.87501630250293
 51
152.9618590756525
  0
ARC
  5
9218d68f
330
1F
  8
Layer
100
AcDbEntity
  6
CONTINUOUS
100
AcDbCircle
 10
3.12363256426712
 20
-0.6736104872285906
 30
0.0
 40
1.8730785253741005
100
AcDbArc
 50
142.76765244637662
 51
146.87501630250154
  0
ARC
  5
e2636079
330
1F
  8
Layer
100
AcDbEntity
  6
CONTINUOUS
100
AcDbCircle
 10
14.465371076202393
 20
-9.292555302801503
 30
0.0
 40
16.118121249318694
100
AcDbArc
 50
142.45894074133037
 51
142.76765244637215
  0
ARC
  5
7e1bc50f
330
1F
  8
Layer
100
AcDbEntity
  6
CONTINUOUS
100
AcDbCircle
 10
1.0175004915820265
 20
1.0416783349587018
 30
0.0
 40
0.8418789906728156
100
AcDbArc
 50
-37.5410592586695
 51
-33.26661904574034
  0
ARC
  5
e19fa19c
330
1F
  8
Layer
100
AcDbEntity
  6
CONTINUOUS
100
AcDbCircle
 10
1.1454072007096927
 20
0.9577659639697549
 30
0.0
 40
0.6889037892679606
100
AcDbArc
 50
-33.26661904574296
 51
-22.878640219394086
  0
ARC
  5
e71ad6a4
330
1F
  8
Layer
100
AcDbEntity
  6
CONTINUOUS
100
AcDbCircle
 10
0.8066571313897635
 20
1.1007107996553578
 30
0.0
 40
1.0565786939234738
100
AcDbArc
 50
-22.87864021939174
 51
-16.898500925447205
  0
ARC
  5
649c999b
330
1F
  8
Layer
100
AcDbEntity
  6
CONTINUOUS
100
AcDbCircle
 10
1.161931021797132
 20
0.9927804920101844
 30
0.0
 40
0.6852722322054361
100
AcDbArc
 50
-16.898500925458304
 51
-14.829950710744665
  0
ARC
  5
ba084fc4
330
1F
  8
Layer
100
AcDbEntity
  6
CONTINUOUS
100
AcDbCircle
 10
1.6789381170210544
 20
0.8558921595685709
 30
0.0
 40
0.15045006356381724
100
AcDbArc
 50
-14.829950710731612
 51
-7.76641306888696
  0
ARC
  5
69786fe3
330
1F
  8
Layer
100
AcDbEntity
  6
CONTINUOUS
100
AcDbCircle
 10
1.4572433302155285
 20
0.8861281818172331
 30
0.0
 40
0.3741972323462832
100
AcDbArc
 50
-7.766413068887191
 51
-2.598253051353142
  0
ARC
  5
c30a1cb9
330
1F
  8
Layer
100
AcDbEntity
  6
CONTINUOUS
100
AcDbCircle
 10
1.366198936445948
 20
0.8902597018818033
 30
0.0
 40
0.46533532040453934
100
AcDbArc
 50
-2.5982530513567683
 51
2.0359426838572907
  0
ARC
  5
f4f633a2
330
1F
  8
Layer
100
AcDbEntity
  6
CONTINUOUS
100
AcDbCircle
 10
1.5709562831136024
 20
0.8975385934630293
 30
0.0
 40
0.26044863641304733
100
AcDbArc
 50
2.0359426838604415
 51
11.998268061377555
  0
ARC
  5
d01614ba
330
1F
  8
Layer
100
AcDbEntity
  6
CONTINUOUS
100
AcDbCircle
 10
1.793133886749121
 20
0.9447568815949374
 30
0.0
 40
0.03330891225338052
100
AcDbArc
 50
11.998268061379695
 51
34.83873404904617
  0
ARC
  5
cad8681a
330
1F
  8
Layer
100
AcDbEntity
  6
CONTINUOUS
100
AcDbCircle
 10
1.8094970117515465
 20
0.9561459630579572
 30
0.0
 40
0.013372437228534238
100
AcDbArc
 50
34.83873404909661
 51
58.93555454047764
  0
ARC
  5
204d54e3
330
1F
  8
Layer
100
AcDbEntity
  6
CONTINUOUS
100
AcDbCircle
 10
1.811753668499488
 20
0.9598921196781047
 30
0.0
 40
0.00899908735678804
100
AcDbArc
 50
58.93555454045558
 51
117.79660115899188
  0
ARC
  5
8a2097dc
330
1F
  8
Layer
100
AcDbEntity
  6
CONTINUOUS
100
AcDbCircle
 10
1.8204616008156582
 20
0.9433736813183762
 30
0.0
 40
0.027672247000168307
100
AcDbArc
 50
117.79660115891643
 51
142.5430609871575
  0
ARC
  5
d822e72f
330
1F
  8
Layer
100
AcDbEntity
  6
CONTINUOUS
100
AcDbCircle
 10
8.68002054029719
 20
-4.311964977238003
 30
0.0
 40
8.668976156731516
100
AcDbArc
 50
142.5430609872068
 51
142.7572182647938
  0
ARC
  5
eb0fd6ec
330
1F
  8
Layer
100
AcDbEntity
  6
CONTINUOUS
100
AcDbCircle
 10
-1.317946601806125
 20
3.288678196057363
 30
0.0
 40
3.890049427378864
100
AcDbArc
 50
-38.55621015138166
 51
-37.2427817352214
  0
ARC
  5
2c2cf3a9
330
1F
  8
Layer
100
AcDbEntity
  6
CONTINUOUS
100
AcDbCircle
 10
1.443353908620901
 20
1.0878141364993215
 30
0.0
 40
0.35896133480189785
100
AcDbArc
 50
-46.696236377414685
 51
-38.55621015137922
  0
ARC
  5
ba058bf7
330
1F
  8
Layer
100
AcDbEntity
  6
CONTINUOUS
100
AcDbCircle
 10
1.352488567867306
 20
1.1842254046839442
 30
0.0
 40
0.49144394793748664
100
AcDbArc
 50
-57.69542081056993
 51
-46.69623637741324
  0
ARC
  5
bd8648ce
330
1F
  8
Layer
100
AcDbEntity
  6
CONTINUOUS
100
AcDbCircle
 10
1.3962795220418254
 20
1.1149672207247447
 30
0.0
 40
0.40950284889164074
100
AcDbArc
 50
-64.35759525135731
 51
-57.69542081057373
  0
ARC
  5
b6039ea2
330
1F
  8
Layer
100
AcDbEntity
  6
CONTINUOUS
100
AcDbCircle
 10
1.4555054146642818
 20
0.9915876663420153
 30
0.0
 40
0.2726444520114799
100
AcDbArc
 50
-76.37459083792838
 51
-64.35759525135401
  0
ARC
  5
e60250e5
330
1F
  8
Layer
100
AcDbEntity
  6
CONTINUOUS
100
AcDbCircle
 10
1.4963726018271835
 20
0.8229901408303191
 30
0.0
 40
0.09916461861498804
100
AcDbArc
 50
-96.36513452575655
 51
-76.3745908379135
  0
ARC
  5
4b80712f
330
1F
  8
Layer
100
AcDbEntity
  6
CONTINUOUS
100
AcDbCircle
 10
1.492441883184754
 20
0.7877534417132541
 30
0.0
 40
0.06370935788103567
100
AcDbArc
 50
-117.64908887498211
 51
-96.3651345257769
  0
ARC
  5
9d83b5dc
330
1F
  8
Layer
100
AcDbEntity
  6
CONTINUOUS
100
AcDbCircle
 10
1.4887636095207168
 20
0.7807322111774189
 30
0.0
 40
0.05578298573579225
100
AcDbArc
 50
-148.7830579669883
 51
-117.64908887497636
  0
ARC
  5
33906ce0
330
1F
  8
Layer
100
AcDbEntity
  6
CONTINUOUS
100
AcDbCircle
 10
1.5089342509224861
 20
0.7929561392131241
 30
0.0
 40
0.07936855740961093
100
AcDbArc
 50
-170.6476259579523
 51
-148.78305796698461
  0
ARC
  5
1528a39a
330
1F
  8
Layer
100
AcDbEntity
  6
CONTINUOUS
100
AcDbCircle
 10
1.64998496958973
 20
0.816186491971455
 30
0.0
 40
0.22231943892428527
100
AcDbArc
 50
176.339541122044
 51
-170.64762595795986
  0
ARC
  5
76677047
330
1F
  8
Layer
100
AcDbEntity
  6
CONTINUOUS
100
AcDbCircle
 10
2.8571341125645047
 20
0.7389601863426705
 30
0.0
 40
1.4319363020945226
100
AcDbArc
 50
174.92064901606528
 51
176.33954112203656
  0
ARC
  5
10efefdd
330
1F
  8
Layer
100
AcDbEntity
  6
CONTINUOUS
100
AcDbCircle
 10
0.6016161091259726
 20
0.9394404834028451
 30
0.0
 40
0.8324739552008886
100
AcDbArc
 50
-5.07935098392552
 51
-0.5458482044757419
  0
ARC
  5
80c60fa6
330
1F
  8
Layer
100
AcDbEntity
  6
CONTINUOUS
100
AcDbCircle
 10
0.729121834866092
 20
0.9382257189344587
 30
0.0
 40
0.7049624429785503
100
AcDbArc
 50
-0.5458482044833938
 51
8.486283043730136
  0
ARC
  5
357db0dd
330
1F
  8
Layer
100
AcDbEntity
  6
CONTINUOUS
100
AcDbCircle
 10
1.030463002662091
 20
0.9831877065928181
 30
0.0
 40
0.40028543409398243
100
AcDbArc
 50
8.48628304373443
 51
20.482161736631443
  0
ARC
  5
3caef655
330
1F
  8
Layer
100
AcDbEntity
  6
CONTINUOUS
100
AcDbCircle
 10
1.0838874281420894
 20
1.0031433249074029
 30
0.0
 40
0.3432556529249704
100
AcDbArc
 50
20.48216173663262
 51
46.63983654155655
  0
ARC
  5
a295d83f
330
1F
  8
Layer
100
AcDbEntity
  6
CONTINUOUS
100
AcDbCircle
 10
0.9934049839061971
 20
0.9073274649870462
 30
0.0
 40
0.475042419055637
100
AcDbArc
 50
46.63983654155757
 51
57.98045573199452
  0
ARC
  5
b0512956
330
1F
  8
Layer
100
AcDbEntity
  6
CONTINUOUS
100
AcDbCircle
 10
0.861586143890932
 20
0.6965332597921028
 30
0.0
 40
0.7236594006291762
100
AcDbArc
 50
57.98045573200198
 51
64.67793233221136
  0
ARC
  5
e92f5e83
330
1F
  8
Layer
100
AcDbEntity
  6
CONTINUOUS
100
AcDbCircle
 10
0.5252482581194013
 20
-0.014286322115229844
 30
0.0
 40
1.510035679155033
100
AcDbArc
 50
64.67793233220395
 51
69.31299754552434
  0
ARC
  5
a684d840
330
1F
  8
Layer
100
AcDbEntity
  6
CONTINUOUS
100
AcDbCircle
 10
0.7392421669371334
 20
0.5524208871359999
 30
0.0
 40
0.9042713239570663
100
AcDbArc
 50
69.31299754551665
 51
71.24613760110832
  0
ARC
  5
03671e6f
330
1F
  8
Layer
100
AcDbEntity
  6
CONTINUOUS
100
AcDbCircle
 10
0.9719018507916963
 20
1.2376624493798256
 30
0.0
 40
0.18060943666600462
100
AcDbArc
 50
71.24613760112008
 51
82.61480195517241
  0
ARC
  5
b90825ab
330
1F
  8
Layer
100
AcDbEntity
  6
CONTINUOUS
100
AcDbCircle
 10
0.9807562784884725
 20
1.3059759381123102
 30
0.0
 40
0.1117245062919322
100
AcDbArc
 50
82.6148019551629
 51
96.02498250290441
  0
ARC
  5
fe26cd4c
330
1F
  8
Layer
100
AcDbEntity
  6
CONTINUOUS
100
AcDbCircle
 10
0.9708715557813441
 20
1.3996299569574489
 30
0.0
 40
0.017550290134629425
100
AcDbArc
 50
96.02498250288821
 51
130.29124224105817
  0
ARC
  5
42115317
330
1F
  8
Layer
100
AcDbEntity
  6
CONTINUOUS
100
AcDbCircle
 10
0.9661354045173416
 20
1.4052163656400682
 30
0.0
 40
0.010226418838330212
100
AcDbArc
 50
130.29124224105956
 51
-174.37820570736426
  0
ARC
  5
642e1242
330
1F
  8
Layer
100
AcDbEntity
  6
CONTINUOUS
100
AcDbCircle
 10
0.9879057417680677
 20
1.4073593268448419
 30
0.0
 40
0.03210197292812467
100
AcDbArc
 50
-174.37820570734343
 51
-154.30930634580577
  0
ARC
  5
5a84d515
330
1F
  8
Layer
100
AcDbEntity
  6
CONTINUOUS
100
AcDbCircle
 10
1.257111162649897
 20
1.5368652968961292
 30
0.0
 40
0.33083823606182494
100
AcDbArc
 50
-154.3093063458226
 51
-148.80150120422428
  0
ARC
  5
4b8b4799
330
1F
  8
Layer
100
AcDbEntity
  6
CONTINUOUS
100
AcDbCircle
 10
2.119165717918019
 20
2.058913222569147
 30
0.0
 40
1.3386438189785
100
AcDbArc
 50
-148.80150120423315
 51
-146.06416608517043
  0
ARC
  5
e6c511dc
330
1F
  8
Layer
100
AcDbEntity
  6
CONTINUOUS
100
AcDbCircle
 10
-7.607659321456082
 20
-4.486075929071423
 30
0.0
 40
10.385178439213908
100
AcDbArc
 50
33.56492629534008
 51
33.935833914824244
  0
ARC
  5
7d7488cb
330
1F
  8
Layer
100
AcDbEntity
  6
CONTINUOUS
100
AcDbCircle
 10
0.630453370971966
 20
0.9800469417731454
 30
0.0
 40
0.49857133807378917
100
AcDbArc
 50
26.21357707446492
 51
33.56492629533549
  0
ARC
  5
a4f51147
330
1F
  8
Layer
100
AcDbEntity
  6
CONTINUOUS
100
AcDbCircle
 10
0.7287253686709629
 20
1.0284316881716835
 30
0.0
 40
0.38903381383756225
100
AcDbArc
 50
11.985831801637703
 51
26.21357707447621
  0
ARC
  5
eee13c13
330
1F
  8
Layer
100
AcDbEntity
  6
CONTINUOUS
100
AcDbCircle
 10
0.7208587253074894
 20
1.0267616145648653
 30
0.0
 40
0.39707578024263174
100
AcDbArc
 50
-2.0963621338527387
 51
11.985831801635712
  0
ARC
  5
b034ffc8
330
1F
  8
Layer
100
AcDbEntity
  6
CONTINUOUS
100
AcDbCircle
 10
0.7531048478726259
 20
1.02558125307052
 30
0.0
 40
0.3648080614862165
100
AcDbArc
 50
-12.446357574536135
 51
-2.096362133857359
  0
ARC
  5
f1b6d291
330
1F
  8
Layer
100
AcDbEntity
  6
CONTINUOUS
100
AcDbCircle
 10
0.6456272872431563
 20
1.049302906485921
 30
0.0
 40
0.47487232852880085
100
AcDbArc
 50
-28.666322067654395
 51
-12.44635757453058
  0
ARC
  5
c7b3346e
330
1F
  8
Layer
100
AcDbEntity
  6
CONTINUOUS
100
AcDbCircle
 10
0.6910232367477771
 20
1.0244840202909629
 30
0.0
 40
0.42313482430426147
100
AcDbArc
 50
-40.859508369680604
 51
-28.666322067657163
  0
ARC
  5
518d9c0c
330
1F
  8
Layer
100
AcDbEntity
  6
CONTINUOUS
100
AcDbCircle
 10
0.8064902941633108
 20
0.9246060622198806
 30
0.0
 40
0.2704644347172468
100
AcDbArc
 50
-56.12698690648851
 51
-40.859508369680135
  0
ARC
  5
36b82524
330
1F
  8
Layer
100
AcDbEntity
  6
CONTINUOUS
100
AcDbCircle
 10
0.8173042493297933
 20
0.9084968141398222
 30
0.0
 40
0.2510621281521091
100
AcDbArc
 50
-68.19452922241864
 51
-56.12698690648289
  0
ARC
  5
fc6204b8
330
1F
  8
Layer
100
AcDbEntity
  6
CONTINUOUS
100
AcDbCircle
 10
0.7561899521784712
 20
1.061251155881068
 30
0.0
 40
0.41558825445763264
100
AcDbArc
 50
-80.45370103485342
 51
-68.19452922242542
  0
ARC
  5
a470f296
330
1F
  8
Layer
100
AcDbEntity
  6
CONTINUOUS
100
AcDbCircle
 10
0.7315163824045543
 20
1.2079661944593343
 30
0.0
 40
0.5643635467289326
100
AcDbArc
 50
-87.79942814003283
 51
-80.45370103485052
  0
ARC
  5
77f9c5f8
330
1F
  8
Layer
100
AcDbEntity
  6
CONTINUOUS
100
AcDbCircle
 10
0.3617614957557773
 20
10.830454265097067
 30
0.0
 40
10.193953119798294
100
AcDbArc
 50
-88.22110838551794
 51
-87.79942814002595
  0
ARC
  5
2e3151f4
330
1F
  8
Layer
100
AcDbEntity
  6
CONTINUOUS
100
AcDbCircle
 10
0.7099536393612247
 20
-0.3807569617770983
 30
0.0
 40
1.0226637918403443
100
AcDbArc
 50
91.77889161447906
 51
95.8967758394789
  0
ARC
  5
c732415a
330
1F
  8
Layer
100
AcDbEntity
  6
CONTINUOUS
100
AcDbCircle
 10
0.6301798794695566
 20
0.3916228325854747
 30
0.0
 40
0.24617528612578823
100
AcDbArc
 50
95.89677583948571
 51
109.15562041707327
  0
ARC
  5
f7dd8b5b
330
1F
  8
Layer
100
AcDbEntity
  6
CONTINUOUS
100
AcDbCircle
 10
0.606389303799467
 20
0.4601108227125661
 30
0.0
 40
0.1736728980108939
100
AcDbArc
 50
109.15562041708576
 51
126.06085790695217
  0
ARC
  5
fcb78f57
330
1F
  8
Layer
100
AcDbEntity
  6
CONTINUOUS
100
AcDbCircle
 10
0.5983790250712437
 20
0.47111143486282026
 30
0.0
 40
0.16006488445328257
100
AcDbArc
 50
126.06085790692902
 51
143.67552605233314
  0
ARC
  5
47e63e68
330
1F
  8
Layer
100
AcDbEntity
  6
CONTINUOUS
100
AcDbCircle
 10
0.6300235551401829
 20
0.44784539932416956
 30
0.0
 40
0.1993419094547983
100
AcDbArc
 50
143.67552605234806
 51
152.77089399402206
  0
ARC
  5
0118ed82
330
1F
  8
Layer
100
AcDbEntity
  6
CONTINUOUS
100
AcDbCircle
 10
0.6739588883035246
 20
0.425237483831878
 30
0.0
 40
0.24875275181839676
100
AcDbArc
 50
152.77089399402195
 51
160.91127753696918
  0
ARC
  5
74ba5980
330
1F
  8
Layer
100
AcDbEntity
  6
CONTINUOUS
100
AcDbCircle
 10
0.4814403216281029
 20
0.4918605803385374
 30
0.0
 40
0.04503226805965859
100
AcDbArc
 50
160.9112775369475
 51
172.332426393479
  0
ARC
  5
c18c20cf
330
1F
  8
Layer
100
AcDbEntity
  6
CONTINUOUS
100
AcDbCircle
 10
0.44362261924127533
 20
0.4969519418944712
 30
0.0
 40
0.006873382117956213
100
AcDbArc
 50
172.33242639347569
 51
-97.520767684447
  0
ARC
  5
19c36b96
330
1F
  8
Layer
100
AcDbEntity
  6
CONTINUOUS
100
AcDbCircle
 10
0.44493707660809867
 20
0.5069083485103623
 30
0.0
 40
0.01691618206967071
100
AcDbArc
 50
-97.52076768433467
 51
-76.07310402640765
  0
ARC
  5
25fb7c88
330
1F
  8
Layer
100
AcDbEntity
  6
CONTINUOUS
100
AcDbCircle
 10
0.4052991668015178
 20
0.6667558966573452
 30
0.0
 40
0.18160498722180246
100
AcDbArc
 50
-76.07310402648972
 51
-69.5618836639292
  0
ARC
  5
0eb043be
330
1F
  8
Layer
100
AcDbEntity
  6
CONTINUOUS
100
AcDbCircle
 10
1.194778076826364
 20
-1.4517740477281513
 30
0.0
 40
2.079245754121384
100
AcDbArc
 50
109.53571714987659
 51
110.43811633608671
  0
ARC
  5
c0182d4e
330
1F
  8
Layer
100
AcDbEntity
  6
CONTINUOUS
100
AcDbCircle
 10
0.5222023288333815
 20
0.44376513971574316
 30
0.0
 40
0.0679210792059247
100
AcDbArc
 50
97.04936330190529
 51
109.53571714983214
  0
ARC
  5
5fbfe8f5
330
1F
  8
Layer
100
AcDbEntity
  6
CONTINUOUS
100
AcDbCircle
 10
0.5183802975818934
 20
0.4746729202825002
 30
0.0
 40
0.036777880551160116
100
AcDbArc
 50
82.61654225688004
 51
97.04936330196439
  0
ARC
  5
f0d178c0
330
1F
  8
Layer
100
AcDbEntity
  6
CONTINUOUS
100
AcDbCircle
 10
0.5210515688719339
 20
0.49528716656138827
 30
0.0
 40
0.015991278136343694
100
AcDbArc
 50
60.652277390821126
 51
82.61654225688319
  0
ARC
  5
17b47472
330
1F
  8
Layer
100
AcDbEntity
  6
CONTINUOUS
100
AcDbCircle
 10
0.5063431774955844
 20
0.46912819845397746
 30
0.0
 40
0.046001749464272074
100
AcDbArc
 50
29.339171357212784
 51
60.65227739081151
  0
ARC
  5
48d269b9
330
1F
  8
Layer
100
AcDbEntity
  6
CONTINUOUS
100
AcDbCircle
 10
0.4662335361792813
 20
0.4465836463926076
 30
0.0
 40
0.09201305409878871
100
AcDbArc
 50
7.338206898140239
 51
29.339171357200097
  0
ARC
  5
ba984c0d
330
1F
  8
Layer
100
AcDbEntity
  6
CONTINUOUS
100
AcDbCircle
 10
0.419958089781735
 20
0.44062425777144143
 30
0.0
 40
0.13867064996516681
100
AcDbArc
 50
-9.593513467789295
 51
7.33820689814488
  0
ARC
  5
de53e859
330
1F
  8
Layer
100
AcDbEntity
  6
CONTINUOUS
100
AcDbCircle
 10
0.29541233174314985
 20
0.4616750928837796
 30
0.0
 40
0.26498289602362585
100
AcDbArc
 50
-30.439464849482206
 51
-9.5935134677919
  0
ARC
  5
fdb45cd8
330
1F
  8
Layer
100
AcDbEntity
  6
CONTINUOUS
100
AcDbCircle
 10
0.29202221985698507
 20
0.463667199828371
 30
0.0
 40
0.2689149881740468
100
AcDbArc
 50
-52.59263549658862
 51
-30.439464849483024
  0
ARC
  5
9d5e1909
330
1F
  8
Layer
100
AcDbEntity
  6
CONTINUOUS
100
AcDbCircle
 10
0.3298376611173284
 20
0.4142198293954753
 30
0.0
 40
0.2066650882508948
100
AcDbArc
 50
-87.62144266667568
 51
-52.592635496588926
  0
ARC
  5
0526ed42
330
1F
  8
Layer
100
AcDbEntity
  6
CONTINUOUS
100
AcDbCircle
 10
0.33356027657052945
 20
0.3245992807433504
 30
0.0
 40
0.1169672588093735
100
AcDbArc
 50
-99.15457942449548
 51
-87.62144266667606
  0
ARC
  5
c3b40066
330
1F
  8
Layer
100
AcDbEntity
  6
CONTINUOUS
100
AcDbCircle
 10
0.35777231916749486
 20
0.4748435131982751
 30
0.0
 40
0.2691498872289361
100
AcDbArc
 50
-106.75026748516464
 51
-99.15457942448745
  0
ARC
  5
e7dd6de4
330
1F
  8
Layer
100
AcDbEntity
  6
CONTINUOUS
100
AcDbCircle
 10
0.31990586859117354
 20
0.3490292011248972
 30
0.0
 40
0.13776073546309842
100
AcDbArc
 50
-117.48101792781151
 51
-106.75026748517568
  0
ARC
  5
fdd1c52e
330
1F
  8
Layer
100
AcDbEntity
  6
CONTINUOUS
100
AcDbCircle
 10
0.2653221445503078
 20
0.24408997374771801
 30
0.0
 40
0.01947453858160013
100
AcDbArc
 50
-146.28193696316825
 51
-117.48101792778195
  0
ARC
  5
9c069436
330
1F
  8
Layer
100
AcDbEntity
  6
CONTINUOUS
100
AcDbCircle
 10
0.2562092797402833
 20
0.2380082968076378
 30
0.0
 40
0.008518668034296075
100
AcDbArc
 50
149.32172331546968
 51
-146.28193696316563
  0
ARC
  5
969637bf
330
1F
  8
Layer
100
AcDbEntity
  6
CONTINUOUS
100
AcDbCircle
 10
0.47692308809211426
 20
0.10707118611949196
 30
0.0
 40
0.2651489705173202
100
AcDbArc
 50
145.00117220485734
 51
149.32172331546658
  0
ARC
  5
62630371
330
1F
  8
Layer
100
AcDbEntity
  6
CONTINUOUS
100
AcDbCircle
 10
0.9797776985778437
 20
-0.24501607114572033
 30
0.0
 40
0.8790123071121144
100
AcDbArc
 50
141.63404656835948
 51
145.00117220485274
  0
ARC
  5
a5fa54d2
330
1F
  8
Layer
100
AcDbEntity
  6
CONTINUOUS
100
AcDbCircle
 10
-0.04082095927999885
 20
0.5629134762602268
 30
0.0
 40
0.4226680584126972
100
AcDbArc
 50
-38.365953431639944
 51
-31.360069486477194
  0
ARC
  5
56b32b2a
330
1F
  8
Layer
100
AcDbEntity
  6
CONTINUOUS
100
AcDbCircle
 10
-0.11698441565384177
 20
0.6093310227434252
 30
0.0
 40
0.5118614477884241
100
AcDbArc
 50
-31.36006948647474
 51
-27.155783772132242
  0
ARC
  5
5490fabd
330
1F
  8
Layer
100
AcDbEntity
  6
CONTINUOUS
100
AcDbCircle
 10
-1.1113697849745892
 20
1.119405999381645
 30
0.0
 40
1.629438623875891
100
AcDbArc
 50
-27.155783772136775
 51
-23.33001071140068
  0
ARC
  5
bbb61fb6
330
1F
  8
Layer
100
AcDbEntity
  6
CONTINUOUS
100
AcDbCircle
 10
-0.7762110642259374
 20
0.9748556914413093
 30
0.0
 40
1.2644370353594607
100
AcDbArc
 50
-23.330010711396636
 51
-17.574698329248143
  0
ARC
  5
0e6b44d7
330
1F
  8
Layer
100
AcDbEntity
  6
CONTINUOUS
100
AcDbCircle
 10
-0.2683668832420443
 20
0.8140048230505628
 30
0.0
 40
0.7317281899089105
100
AcDbArc
 50
-17.57469832924864
 51
-10.006791785789732
  0
ARC
  5
d4ea4ee9
330
1F
  8
Layer
100
AcDbEntity
  6
CONTINUOUS
100
AcDbCircle
 10
-2.391747276248288
 20
1.188673611272543
 30
0.0
 40
2.887910230987787
100
AcDbArc
 50
-10.006791785771727
 51
-9.462033016192024
  0
ARC
  5
813aec80
330
1F
  8
Layer
100
AcDbEntity
  6
CONTINUOUS
100
AcDbCircle
 10
0.49248671307446457
 20
0.7079829084918863
 30
0.0
 40
0.036105715771805616
100
AcDbArc
 50
133.69924374562208
 51
170.53796698380174
  0
ARC
  5
c993f863
330
1F
  8
Layer
100
AcDbEntity
  6
CONTINUOUS
100
AcDbCircle
 10
0.4928837842253777
 20
0.7075673862870244
 30
0.0
 40
0.03668045414847816
100
AcDbArc
 50
100.9796800467503
 51
133.6992437456122
  0
ARC
  5
477ac47d
330
1F
  8
Layer
100
AcDbEntity
  6
CONTINUOUS
100
AcDbCircle
 10
0.5200287255765912
 20
0.5676538677505647
 30
0.0
 40
0.1792028752274546
100
AcDbArc
 50
95.35335578674056
 51
100.97968004676012
  0
ARC
  5
8a256e16
330
1F
  8
Layer
100
AcDbEntity
  6
CONTINUOUS
100
AcDbCircle
 10
0.47445005471826907
 20
1.0540519172059395
 30
0.0
 40
0.30932601619167394
100
AcDbArc
 50
-84.6466442132523
 51
-81.15282865343498
  0
ARC
  5
306b7ed6
330
1F
  8
Layer
100
AcDbEntity
  6
CONTINUOUS
100
AcDbCircle
 10
0.5193703176956208
 20
0.7654564523613281
 30
0.0
 40
0.017255524092880534
100
AcDbArc
 50
-81.15282865347504
 51
-49.20634395925137
  0
ARC
  5
d5754e68
330
1F
  8
Layer
100
AcDbEntity
  6
CONTINUOUS
100
AcDbCircle
 10
0.5219085309786746
 20
0.7625152456523894
 30
0.0
 40
0.013370524276281277
100
AcDbArc
 50
-49.20634395920668
 51
-1.685600535611727
  0
ARC
  5
72114029
330
1F
  8
Layer
100
AcDbEntity
  6
CONTINUOUS
100
AcDbCircle
 10
0.493504563486981
 20
0.7633511110624107
 30
0.0
 40
0.041786787933786346
100
AcDbArc
 50
-1.6856005356413228
 51
24.662631488530224
  0
ARC
  5
2aa064af
330
1F
  8
Layer
100
AcDbEntity
  6
CONTINUOUS
100
AcDbCircle
 10
0.4021658760664133
 20
0.7214121609853004
 30
0.0
 40
0.14229366010321903
100
AcDbArc
 50
24.66263148854413
 51
32.57443143355853
  0
ARC
  5
41db9296
330
1F
  8
Layer
100
AcDbEntity
  6
CONTINUOUS
100
AcDbCircle
 10
1.1762162198868686
 20
1.2159514458290928
 30
0.0
 40
0.776250317625868
100
AcDbArc
 50
-150.1168190515863
 51
-147.42556856644583
  0
ARC
  5
edb1848e
330
1F
  8
Layer
100
AcDbEntity
  6
CONTINUOUS
100
AcDbCircle
 10
0.703749661346478
 20
0.9444556443466352
 30
0.0
 40
0.23133324213492576
100
AcDbArc
 50
-158.63447943668777
 51
-150.1168190515812
  0
ARC
  5
0e24eda4
330
1F
  8
Layer
100
AcDbEntity
  6
CONTINUOUS
100
AcDbCircle
 10
0.522316780528365
 20
0.873478797312409
 30
0.0
 40
0.03651126427595951
100
AcDbArc
 50
179.81845469974266
 51
-158.6344794366982
  0
ARC
  5
7f1645b0
330
1F
  8
Layer
100
AcDbEntity
  6
CONTINUOUS
100
AcDbCircle
 10
0.5044843021187517
 20
0.8735353008369189
 30
0.0
 40
0.018678696348776648
100
AcDbArc
 50
150.69898020470802
 51
179.81845469976938
  0
ARC
  5
e4e93425
330
1F
  8
Layer
100
AcDbEntity
  6
CONTINUOUS
100
AcDbCircle
 10
0.5009929902348451
 20
0.8754946154021286
 30
0.0
 40
0.01467517636804064
100
AcDbArc
 50
117.74688952743367
 51
150.69898020466286
  0
ARC
  5
db03409c
330
1F
  8
Layer
100
AcDbEntity
  6
CONTINUOUS
100
AcDbCircle
 10
0.5056060405900025
 20
0.8667254935903137
 30
0.0
 40
0.024583644005857688
100
AcDbArc
 50
94.23138295183983
 51
117.746889527424
  0
ARC
  5
f72a6146
330
1F
  8
Layer
100
AcDbEntity
  6
CONTINUOUS
100
AcDbCircle
 10
0.5109452411910718
 20
0.7945605997332195
 30
0.0
 40
0.09694578167787583
100
AcDbArc
 50
82.45191450798782
 51
94.23138295188278
  0
ARC
  5
402135b2
330
1F
  8
Layer
100
AcDbEntity
  6
CONTINUOUS
100
AcDbCircle
 10
0.42539347625190316
 20
0.14891803177368002
 30
0.0
 40
0.748231763444406
100
AcDbArc
 50
80.99297641045109
 51
82.45191450795008
  0
ARC
  5
5acf753f
330
1F
  8
Layer
100
AcDbEntity
  6
CONTINUOUS
100
AcDbCircle
 10
0.5473973561335768
 20
0.9186095394226799
 30
0.0
 40
0.0310691820530127
100
AcDbArc
 50
-99.00702358954412
 51
-72.16307969115417
  0
ARC
  5
14d00190
330
1F
  8
Layer
100
AcDbEntity
  6
CONTINUOUS
100
AcDbCircle
 10
0.5521943658477741
 20
0.9037016150404962
 30
0.0
 40
0.01540848246509441
100
AcDbArc
 50
-72.16307969113647
 51
-37.562773113102196
  0
ARC
  5
928d7325
330
1F
  8
Layer
100
AcDbEntity
  6
CONTINUOUS
100
AcDbCircle
 10
0.553505532762341
 20
0.902693237044343
 30
0.0
 40
0.013754401191099245
100
AcDbArc
 50
-37.562773113149326
 51
-0.8712103440158855
  0
ARC
  5
873a5a21
330
1F
  8
Layer
100
AcDbEntity
  6
CONTINUOUS
100
AcDbCircle
 10
0.5334609690616969
 20
0.9029980479286253
 30
0.0
 40
0.03380128233566444
100
AcDbArc
 50
-0.8712103440014645
 51
26.073529132573036
  0
ARC
  5
35a8e926
330
1F
  8
Layer
100
AcDbEntity
  6
CONTINUOUS
100
AcDbCircle
 10
0.4618896713318854
 20
0.8679766236912916
 30
0.0
 40
0.11348158613993425
100
AcDbArc
 50
26.073529132575715
 51
40.68337724576032
  0
ARC
  5
221e5295
330
1F
  8
Layer
100
AcDbEntity
  6
CONTINUOUS
100
AcDbCircle
 10
0.23423403818743593
 20
0.6722767711664306
 30
0.0
 40
0.41369071255126016
100
AcDbArc
 50
40.68337724576007
 51
46.34660368256187
  0
ARC
  5
835c5c55
330
1F
  8
Layer
100
AcDbEntity
  6
CONTINUOUS
100
AcDbCircle
 10
0.8940170580531639
 20
1.3638255425414108
 30
0.0
 40
0.5421091286777394
100
AcDbArc
 50
-137.97434486805147
 51
-133.653396317438
  0
ARC
  5
a53f444b
330
1F
  8
Layer
100
AcDbEntity
  6
CONTINUOUS
100
AcDbCircle
 10
0.6079258700975152
 20
1.1059958283873086
 30
0.0
 40
0.15698015115636477
100
AcDbArc
 50
-147.61012860504118
 51
-137.97434486805787
  0
ARC
  5
fd4c18ff
330
1F
  8
Layer
100
AcDbEntity
  6
CONTINUOUS
100
AcDbCircle
 10
0.4943919783586155
 20
1.0339731799659884
 30
0.0
 40
0.022528648899970274
100
AcDbArc
 50
-173.2286280433158
 51
-147.6101286050193
  0
ARC
  5
323b64b3
330
1F
  8
Layer
100
AcDbEntity
  6
CONTINUOUS
100
AcDbCircle
 10
0.48505041510728897
 20
1.032863999619293
 30
0.0
 40
0.013121466270721636
100
AcDbArc
 50
114.39886792730243
 51
-173.22862804331623
  0
ARC
  5
e1a93533
330
1F
  8
Layer
100
AcDbEntity
  6
CONTINUOUS
100
AcDbCircle
 10
0.5040031310858504
 20
0.9910807747165498
 30
0.0
 40
0.05900221742234505
100
AcDbArc
 50
101.5847054351542
 51
114.39886792724914
  0
ARC
  5
aa1e5915
330
1F
  8
Layer
100
AcDbEntity
  6
CONTINUOUS
100
AcDbCircle
 10
0.5165273333584994
 20
0.9299848243399458
 30
0.0
 40
0.12136864104104153
100
AcDbArc
 50
88.17255699896788
 51
101.58470543519735
  0
ARC
  5
e16ac5db
330
1F
  8
Layer
100
AcDbEntity
  6
CONTINUOUS
100
AcDbCircle
 10
0.5235896922046099
 20
1.1513357136890359
 30
0.0
 40
0.1000948844617011
100
AcDbArc
 50
-91.82744300105242
 51
-83.08136473912465
  0
ARC
  5
f6ca8d3f
330
1F
  8
Layer
100
AcDbEntity
  6
CONTINUOUS
100
AcDbCircle
 10
0.5290502483603192
 20
1.1063348336873902
 30
0.0
 40
0.05476391409427845
100
AcDbArc
 50
-83.08136473913629
 51
-64.69034733735424
  0
ARC
  5
9d76931e
330
1F
  8
Layer
100
AcDbEntity
  6
CONTINUOUS
100
AcDbCircle
 10
0.5463800205890343
 20
1.0696893971890975
 30
0.0
 40
0.014227399423557868
100
AcDbArc
 50
-64.69034733732195
 51
-28.14681279444704
  0
ARC
  5
54931498
330
1F
  8
Layer
100
AcDbEntity
  6
CONTINUOUS
100
AcDbCircle
 10
0.5479847473347703
 20
1.0688308672424847
 30
0.0
 40
0.01240744843583597
100
AcDbArc
 50
-28.14681279450796
 51
27.380541426973807
  0
ARC
  5
ff4506a5
330
1F
  8
Layer
100
AcDbEntity
  6
CONTINUOUS
100
AcDbCircle
 10
0.5208342799506149
 20
1.0547690978579785
 30
0.0
 40
0.04298327610085767
100
AcDbArc
 50
27.380541427015938
 51
46.27421305569945
  0
ARC
  5
717631da
330
1F
  8
Layer
100
AcDbEntity
  6
CONTINUOUS
100
AcDbCircle
 10
0.49300653138974293
 20
1.025675249019951
 30
0.0
 40
0.08324287905688689
100
AcDbArc
 50
46.27421305569632
 51
64.68041081292446
  0
ARC
  5
21327c9c
330
1F
  8
Layer
100
AcDbEntity
  6
CONTINUOUS
100
AcDbCircle
 10
0.4113679348954209
 20
0.8531201814899589
 30
0.0
 40
0.2741358117910328
100
AcDbArc
 50
64.68041081291521
 51
77.45625036752962
  0
ARC
  5
3164549d
330
1F
  8
Layer
100
AcDbEntity
  6
CONTINUOUS
100
AcDbCircle
 10
0.39900459345787187
 20
0.7975535786101988
 30
0.0
 40
0.33106119775457604
100
AcDbArc
 50
77.45625036752101
 51
83.76187570330804
  0
ARC
  5
10ffbd35
330
1F
  8
Layer
100
AcDbEntity
  6
CONTINUOUS
100
AcDbCircle
 10
0.47371212421503817
 20
1.481012150284069
 30
0.0
 40
0.3564683175000929
100
AcDbArc
 50
-102.09391231805098
 51
-96.23812429666668
  0
ARC
  5
692c1af6
330
1F
  8
Layer
100
AcDbEntity
  6
CONTINUOUS
100
AcDbCircle
 10
0.4318166939576098
 20
1.2854860716392111
 30
0.0
 40
0.15650413444050051
100
AcDbArc
 50
-114.38968743402164
 51
-102.09391231808038
  0
ARC
  5
ef0bae77
330
1F
  8
Layer
100
AcDbEntity
  6
CONTINUOUS
100
AcDbCircle
 10
0.3824105665793418
 20
1.1765187395849481
 30
0.0
 40
0.03685947355861333
100
AcDbArc
 50
-139.88733802529
 51
-114.3896874339869
  0
ARC
  5
79e32405
330
1F
  8
Layer
100
AcDbEntity
  6
CONTINUOUS
100
AcDbCircle
 10
0.3718961131778302
 20
1.1676607756504107
 30
0.0
 40
0.023111118915307496
100
AcDbArc
 50
173.43593766798742
 51
-139.88733802528554
  0
ARC
  5
862159f9
330
1F
  8
Layer
100
AcDbEntity
  6
CONTINUOUS
100
AcDbCircle
 10
0.38754332011520276
 20
1.165860277114135
 30
0.0
 40
0.03886157541409169
100
AcDbArc
 50
137.85858879640537
 51
173.43593766795803
  0
ARC
  5
82656899
330
1F
  8
Layer
100
AcDbEntity
  6
CONTINUOUS
100
AcDbCircle
 10
0.384929894907482
 20
1.168225121279939
 30
0.0
 40
0.03533702164873517
100
AcDbArc
 50
116.83735177919134
 51
137.85858879641648
  0
ARC
  5
a066e525
330
1F
  8
Layer
100
AcDbEntity
  6
CONTINUOUS
100
AcDbCircle
 10
0.4674653835453402
 20
1.0050969589191077
 30
0.0
 40
0.2181563429468731
100
AcDbArc
 50
108.41677799238157
 51
116.83735177919407
  0
ARC
  5
32e6952f
330
1F
  8
Layer
100
AcDbEntity
  6
CONTINUOUS
100
AcDbCircle
 10
0.7362317974004222
 20
0.1979445375806841
 30
0.0
 40
1.0688798094675742
100
AcDbArc
 50
106.2416125021586
 51
108.41677799239234
  0
ARC
  5
6550219a
330
1F
  8
Layer
100
AcDbEntity
  6
CONTINUOUS
100
AcDbCircle
 10
0.4013498777084852
 20
1.347498729290582
 30
0.0
 40
0.12845921512585753
100
AcDbArc
 50
-73.75838749784484
 51
-63.999400517245384
  0
ARC
  5
94a69be8
330
1F
  8
Layer
100
AcDbEntity
  6
CONTINUOUS
100
AcDbCircle
 10
0.43307343698293876
 20
1.2824575210420597
 30
0.0
 40
0.056093871324646376
100
AcDbArc
 50
-63.999400517271326
 51
-50.56436132522309
  0
ARC
  5
a8922f8e
330
1F
  8
Layer
100
AcDbEntity
  6
CONTINUOUS
100
AcDbCircle
 10
0.46098642648359167
 20
1.2485187538296603
 30
0.0
 40
0.012151011805027168
100
AcDbArc
 50
-50.564361325197254
 51
27.519568150659264
  0
ARC
  5
c95fb61c
330
1F
  8
Layer
100
AcDbEntity
  6
CONTINUOUS
100
AcDbCircle
 10
0.4506298354189917
 20
1.243122957381655
 30
0.0
 40
0.023828922482354672
100
AcDbArc
 50
27.519568150671518
 51
69.70903881602639
  0
ARC
  5
27f7bb07
330
1F
  8
Layer
100
AcDbEntity
  6
CONTINUOUS
100
AcDbCircle
 10
0.4155035719693847
 20
1.1481182701037311
 30
0.0
 40
0.12511932177422935
100
AcDbArc
 50
69.70903881604143
 51
80.7615915055051
  0
ARC
  5
3b62302a
330
1F
  8
Layer
100
AcDbEntity
  6
CONTINUOUS
100
AcDbCircle
 10
0.39312777275721356
 20
1.0105502926655214
 30
0.0
 40
0.2644951618858605
100
AcDbArc
 50
80.76159150548489
 51
88.22874126445207
  0
ARC
  5
97b4cece
330
1F
  8
Layer
100
AcDbEntity
  6
CONTINUOUS
100
AcDbCircle
 10
0.3864275564899904
 20
0.7938841425541778
 30
0.0
 40
0.4812648864834143
100
AcDbArc
 50
88.22874126446514
 51
95.42923675934996
  0
ARC
  5
ff81f223
330
1F
  8
Layer
100
AcDbEntity
  6
CONTINUOUS
100
AcDbCircle
 10
0.37487459729067485
 20
0.9154396118955139
 30
0.0
 40
0.3591616392167924
100
AcDbArc
 50
95.42923675934962
 51
102.18982437898943
  0
ARC
  5
ebfc601d
330
1F
  8
Layer
100
AcDbEntity
  6
CONTINUOUS
100
AcDbCircle
 10
0.31664328511732087
 20
1.1850018641595947
 30
0.0
 40
0.08338148481275634
100
AcDbArc
 50
102.18982437895335
 51
113.42033697927911
  0
ARC
  5
9a540115
330
1F
  8
Layer
100
AcDbEntity
  6
CONTINUOUS
100
AcDbCircle
 10
0.3577132208759881
 20
1.090187190297828
 30
0.0
 40
0.186708935196157
100
AcDbArc
 50
113.42033697934508
 51
119.32531437880961
  0
ARC
  5
ea8bed30
330
1F
  8
Layer
100
AcDbEntity
  6
CONTINUOUS
100
AcDbCircle
 10
-0.35138304534693665
 20
2.3524747678539035
 30
0.0
 40
1.2611126847638707
100
AcDbArc
 50
-64.17047602155434
 51
-60.674685621219965
  0
ARC
  5
3b6180af
330
1F
  8
Layer
100
AcDbEntity
  6
CONTINUOUS
100
AcDbCircle
 10
-0.05814107698010451
 20
1.7466714699949182
 30
0.0
 40
0.5880684902948318
100
AcDbArc
 50
-69.36901563591427
 51
-64.17047602154892
  0
ARC
  5
93e0f466
330
1F
  8
Layer
100
AcDbEntity
  6
CONTINUOUS
100
AcDbCircle
 10
0.12459964395310563
 20
1.2612948043237622
 30
0.0
 40
0.06943116164865859
100
AcDbArc
 50
-84.53735751351259
 51
-69.36901563592852
  0
ARC
  5
a7cf76a7
330
1F
  8
Layer
100
AcDbEntity
  6
CONTINUOUS
100
AcDbCircle
 10
0.12857056660619626
 20
1.219771435349743
 30
0.0
 40
0.027718353092181028
100
AcDbArc
 50
-98.94302928944668
 51
-84.53735751349677
  0
ARC
  5
e2abc321
330
1F
  8
Layer
100
AcDbEntity
  6
CONTINUOUS
100
AcDbCircle
 10
0.12526932779417677
 20
1.1987932516715616
 30
0.0
 40
0.006482007640820901
100
AcDbArc
 50
-177.79764952116525
 51
-98.9430292894147
  0
ARC
  5
f53b4a33
330
1F
  8
Layer
100
AcDbEntity
  6
CONTINUOUS
100
AcDbCircle
 10
0.13983064946026902
 20
1.1993532394648647
 30
0.0
 40
0.021054093112436206
100
AcDbArc
 50
167.37552748152652
 51
-177.79764952121184
  0
ARC
  5
bf7dd544
330
1F
  8
Layer
100
AcDbEntity
  6
CONTINUOUS
100
AcDbCircle
 10
0.4834731426177026
 20
1.1223859145582256
 30
0.0
 40
0.3732104961590662
100
AcDbArc
 50
163.8632000637964
 51
167.3755274816076
  0
ARC
  5
d9b6a95c
330
1F
  8
Layer
100
AcDbEntity
  6
CONTINUOUS
100
AcDbCircle
 10
0.5556598873266541
 20
1.1015000452848178
 30
0.0
 40
0.44835798877845634
100
AcDbArc
 50
161.70902541973282
 51
163.86320006376238
  0
ARC
  5
d7cd107f
330
1F
  8
Layer
100
AcDbEntity
  6
CONTINUOUS
100
AcDbCircle
 10
0.027279284162487816
 20
1.27615289148599
 30
0.0
 40
0.10813970078215572
100
AcDbArc
 50
-18.290974580257302
 51
-9.351011560796334
  0
ARC
  5
c8b3ee97
330
1F
  8
Layer
100
AcDbEntity
  6
CONTINUOUS
100
AcDbCircle
 10
-0.08013117223783728
 20
1.29384023667351
 30
0.0
 40
0.21699670939395146
100
AcDbArc
 50
-9.35101156079333
 51
-3.5599433380934
  0
ARC
  5
d5091e66
330
1F
  8
Layer
100
AcDbEntity
  6
CONTINUOUS
100
AcDbCircle
 10
-0.4321659808120053
 20
1.3157413113591194
 30
0.0
 40
0.5697121237441544
100
AcDbArc
 50
-3.559943338099617
 51
1.0030668080762566
  0
ARC
  5
90ca1982
330
1F
  8
Layer
100
AcDbEntity
  6
CONTINUOUS
100
AcDbCircle
 10
-0.4131599402103723
 20
1.3160740806581335
 30
0.0
 40
0.5507031702022762
100
AcDbArc
 50
1.0030668080785234
 51
15.772840446811822
  0
ARC
  5
8ede6f92
330
1F
  8
Layer
100
AcDbEntity
  6
CONTINUOUS
100
AcDbCircle
 10
-0.1220843821761941
 20
1.3982911563950275
 30
0.0
 40
0.2482389111110006
100
AcDbArc
 50
15.77284044681333
 51
28.89194194125721
  0
ARC
  5
a6df6908
330
1F
  8
Layer
100
AcDbEntity
  6
CONTINUOUS
100
AcDbCircle
 10
-0.06265811192616555
 20
1.4310853162863366
 30
0.0
 40
0.18036447911480444
100
AcDbArc
 50
28.89194194126364
 51
35.365082484991696
  0
ARC
  5
62f5ad39
330
1F
  8
Layer
100
AcDbEntity
  6
CONTINUOUS
100
AcDbCircle
 10
0.06547757278575261
 20
1.5220291309876832
 30
0.0
 40
0.023235452105073457
100
AcDbArc
 50
35.365082485017
 51
67.37957869180613
  0
ARC
  5
6e34397f
330
1F
  8
Layer
100
AcDbEntity
  6
CONTINUOUS
100
AcDbCircle
 10
0.06948663130270183
 20
1.5316506082729533
 30
0.0
 40
0.012812142873199046
100
AcDbArc
 50
67.37957869174716
 51
137.88754058348067
  0
ARC
  5
8b3e071a
330
1F
  8
Layer
100
AcDbEntity
  6
CONTINUOUS
100
AcDbCircle
 10
0.08311384260568211
 20
1.519332094198894
 30
0.0
 40
0.03118186461548086
100
AcDbArc
 50
137.88754058352654
 51
157.9429105789256
  0
ARC
  5
a193a2cf
330
1F
  8
Layer
100
AcDbEntity
  6
CONTINUOUS
100
AcDbCircle
 10
0.10290331156787769
 20
1.5113136835605094
 30
0.0
 40
0.052534100820887164
100
AcDbArc
 50
157.9429105789063
 51
178.8343531509942
  0
ARC
  5
c0fb7092
330
1F
  8
Layer
100
AcDbEntity
  6
CONTINUOUS
100
AcDbCircle
 10
0.1541280869969761
 20
1.5102714036961777
 30
0.0
 40
0.1037694788821173
100
AcDbArc
 50
178.83435315098075
 51
-166.34190933447468
  0
ARC
  5
62de769c
330
1F
  8
Layer
100
AcDbEntity
  6
CONTINUOUS
100
AcDbCircle
 10
0.2321484127735658
 20
1.5292302599961842
 30
0.0
 40
0.18406025958880537
100
AcDbArc
 50
-166.3419093344743
 51
-162.91588816973086
  0
ARC
  5
9555a0b5
330
1F
  8
Layer
100
AcDbEntity
  6
CONTINUOUS
100
AcDbCircle
 10
0.0015315276315062132
 20
1.4583532390300298
 30
0.0
 40
0.057202459896951115
100
AcDbArc
 50
6.0447840087892315
 51
17.08411183030244
  0
ARC
  5
32dfd5af
330
1F
  8
Layer
100
AcDbEntity
  6
CONTINUOUS
100
AcDbCircle
 10
-0.05826540959904625
 20
1.4520210684735617
 30
0.0
 40
0.11733373367450203
100
AcDbArc
 50
-6.622711603169032
 51
6.044784008753714
  0
ARC
  5
6d1f0123
330
1F
  8
Layer
100
AcDbEntity
  6
CONTINUOUS
100
AcDbCircle
 10
-0.32705897196969946
 20
1.483229523790286
 30
0.0
 40
0.3879329702868076
100
AcDbArc
 50
-17.873159137429397
 51
-6.62271160315993
  0
ARC
  5
45d0f956
330
1F
  8
Layer
100
AcDbEntity
  6
CONTINUOUS
100
AcDbCircle
 10
-0.30793579229261425
 20
1.4770627966046974
 30
0.0
 40
0.36784007290630116
100
AcDbArc
 50
-24.18215340823648
 51
-17.873159137438115
  0
ARC
  5
f13e3409
330
1F
  8
Layer
100
AcDbEntity
  6
CONTINUOUS
100
AcDbCircle
 10
-0.09672930910640098
 20
1.3822219027634763
 30
0.0
 40
0.13631691275922161
100
AcDbArc
 50
-34.55477620318565
 51
-24.182153408230054
  0
ARC
  5
23254513
330
1F
  8
Layer
100
AcDbEntity
  6
CONTINUOUS
100
AcDbCircle
 10
-0.25596615162727976
 20
1.491886643100076
 30
0.0
 40
0.32966304612917796
100
AcDbArc
 50
-42.04424334280052
 51
-34.55477620317964
  0
ARC
  5
a1c4139b
330
1F
  8
Layer
100
AcDbEntity
  6
CONTINUOUS
100
AcDbCircle
 10
-1.7868553071537807
 20
2.872447453850477
 30
0.0
 40
2.3911115074515656
100
AcDbArc
 50
-43.64904914164659
 51
-42.04424334280487
  0
ARC
  5
475a2b15
330
1F
  8
Layer
100
AcDbEntity
  6
CONTINUOUS
100
AcDbCircle
 10
1.6957924173744778
 20
-0.44972285294402936
 30
0.0
 40
2.4219593127742214
100
AcDbArc
 50
136.35095085835792
 51
137.64735616495722
  0
ARC
  5
ffb8b747
330
1F
  8
Layer
100
AcDbEntity
  6
CONTINUOUS
100
AcDbCircle
 10
0.1430640804241865
 20
0.9657613018856273
 30
0.0
 40
0.3208737169589906
100
AcDbArc
 50
137.647356164959
 51
143.865186365485
  0
ARC
  5
aeb641c1
330
1F
  8
Layer
100
AcDbEntity
  6
CONTINUOUS
100
AcDbCircle
 10
-6.333558509443894
 20
5.694626263049423
 30
0.0
 40
7.698403307343894
100
AcDbArc
 50
-36.228849534912236
 51
-36.13481363451921
  0
ARC
  5
4a2ed0ba
330
1F
  8
Layer
100
AcDbEntity
  6
CONTINUOUS
100
AcDbCircle
 10
-0.12671110718707923
 20
1.1470995558154233
 30
0.0
 40
0.003927767847480751
100
AcDbArc
 50
-108.3952425671662
 51
-36.22884953494033
  0
ARC
  5
20107a3c
330
1F
  8
Layer
100
AcDbEntity
  6
CONTINUOUS
100
AcDbCircle
 10
-0.12498645938954955
 20
1.152285476003517
 30
0.0
 40
0.009392946547468362
100
AcDbArc
 50
-142.97077713498933
 51
-108.39524256722797
  0
ARC
  5
64ae171b
330
1F
  8
Layer
100
AcDbEntity
  6
CONTINUOUS
100
AcDbCircle
 10
-0.054842878418060126
 20
1.2051985678043846
 30
0.0
 40
0.09725600610853229
100
AcDbArc
 50
-153.56870818343103
 51
-142.9707771349689
  0
ARC
  5
d40cc5f1
330
1F
  8
Layer
100
AcDbEntity
  6
CONTINUOUS
100
AcDbCircle
 10
0.0742906349488246
 20
1.2693889287680942
 30
0.0
 40
0.2414637268280774
100
AcDbArc
 50
-158.1498066145381
 51
-153.56870818344558
  0
ARC
  5
fd69acb6
330
1F
  8
Layer
100
AcDbEntity
  6
CONTINUOUS
100
AcDbCircle
 10
-0.515355756196793
 20
1.0329477977028096
 30
0.0
 40
0.3938214650743321
100
AcDbArc
 50
21.85019338545973
 51
33.096681404964414
  0
ARC
  5
0d1efb21
330
1F
  8
Layer
100
AcDbEntity
  6
CONTINUOUS
100
AcDbCircle
 10
-0.4808845439910041
 20
1.0554164532776666
 30
0.0
 40
0.3526741084851406
100
AcDbArc
 50
33.09668140496618
 51
48.15612579682359
  0
ARC
  5
d2c8e787
330
1F
  8
Layer
100
AcDbEntity
  6
CONTINUOUS
100
AcDbCircle
 10
-0.3901613506176993
 20
1.1567285838092078
 30
0.0
 40
0.21667835263706167
100
AcDbArc
 50
48.156125796825876
 51
67.40393204978507
  0
ARC
  5
463f9799
330
1F
  8
Layer
100
AcDbEntity
  6
CONTINUOUS
100
AcDbCircle
 10
-0.38012860135989524
 20
1.1808353787966497
 30
0.0
 40
0.19056717452812744
100
AcDbArc
 50
67.40393204977903
 51
80.96842881472051
  0
ARC
  5
73723d5e
330
1F
  8
Layer
100
AcDbEntity
  6
CONTINUOUS
100
AcDbCircle
 10
-0.3782147253417545
 20
1.1928761717693166
 30
0.0
 40
0.178375225675567
100
AcDbArc
 50
80.96842881472253
 51
94.99108235068731
  0
ARC
  5
f185946d
330
1F
  8
Layer
100
AcDbEntity
  6
CONTINUOUS
100
AcDbCircle
 10
-0.3876419796105308
 20
1.3008236870560759
 30
0.0
 40
0.07001684261438801
100
AcDbArc
 50
94.99108235069728
 51
111.20631807577105
  0
ARC
  5
f2857684
330
1F
  8
Layer
100
AcDbEntity
  6
CONTINUOUS
100
AcDbCircle
 10
-0.40831160821247736
 20
1.354095746654544
 30
0.0
 40
0.012875387606616308
100
AcDbArc
 50
111.2063180758158
 51
149.6083020486418
  0
ARC
  5
584395c1
330
1F
  8
Layer
100
AcDbEntity
  6
CONTINUOUS
100
AcDbCircle
 10
-0.4106926594727718
 20
1.3554922374045622
 30
0.0
 40
0.010115026847759863
100
AcDbArc
 50
149.60830204854054
 51
-169.05273357435922
  0
ARC
  5
3c8727cf
330
1F
  8
Layer
100
AcDbEntity
  6
CONTINUOUS
100
AcDbCircle
 10
-0.38597122775434567
 20
1.360273988494281
 30
0.0
 40
0.035294668022582305
100
AcDbArc
 50
-169.05273357428948
 51
-147.26828865890315
  0
ARC
  5
b9fde9b5
330
1F
  8
Layer
100
AcDbEntity
  6
CONTINUOUS
100
AcDbCircle
 10
-0.3492561019357612
 20
1.3838733863107096
 30
0.0
 40
0.07894019518370722
100
AcDbArc
 50
-147.26828865893913
 51
-136.74689756218498
  0
ARC
  5
0b5a0a7e
330
1F
  8
Layer
100
AcDbEntity
  6
CONTINUOUS
100
AcDbCircle
 10
-0.14196806416452734
 20
1.5788916588904152
 30
0.0
 40
0.3635459878918335
100
AcDbArc
 50
-136.74689756217742
 51
-131.84951054454078
  0
ARC
  5
57e18cb7
330
1F
  8
Layer
100
AcDbEntity
  6
CONTINUOUS
100
AcDbCircle
 10
0.4330866160758855
 20
2.220937883473312
 30
0.0
 40
1.2254689773564122
100
AcDbArc
 50
-131.84951054452958
 51
-129.97207128018508
  0
ARC
  5
a0d651e6
330
1F
  8
Layer
100
AcDbEntity
  6
CONTINUOUS
100
AcDbCircle
 10
-0.439647375746536
 20
1.1798237987597404
 30
0.0
 40
0.1330534397833555
100
AcDbArc
 50
40.70508831536489
 51
50.02792871981302
  0
ARC
  5
e77e7cbd
330
1F
  8
Layer
100
AcDbEntity
  6
CONTINUOUS
100
AcDbCircle
 10
-0.43154037172548243
 20
1.186798175010059
 30
0.0
 40
0.12235926200858538
100
AcDbArc
 50
34.4050999353887
 51
40.70508831538908
  0
ARC
  5
899ffba5
330
1F
  8
Layer
100
AcDbEntity
  6
CONTINUOUS
100
AcDbCircle
 10
-0.6302603617138103
 20
1.0507057754843112
 30
0.0
 40
0.3632135242287852
100
AcDbArc
 50
28.433476856906072
 51
34.40509993532833
  0
ARC
  5
80d4f57c
330
1F
  8
Layer
100
AcDbEntity
  6
CONTINUOUS
100
AcDbCircle
 10
-0.6127842262742988
 20
1.0601682870427855
 30
0.0
 40
0.34334006366212977
100
AcDbArc
 50
-6.660269111847796
 51
28.433476856923843
  0
ARC
  5
1accee53
330
1F
  8
Layer
100
AcDbEntity
  6
CONTINUOUS
100
AcDbCircle
 10
-0.5822805039451482
 20
1.056606365727093
 30
0.0
 40
0.3126290825740395
100
AcDbArc
 50
-26.759568755872653
 51
-6.660269111844675
  0
ARC
  5
32ad7f03
330
1F
  8
Layer
100
AcDbEntity
  6
CONTINUOUS
100
AcDbCircle
 10
-0.4740584386797615
 20
1.002035286775536
 30
0.0
 40
0.19142669782752292
100
AcDbArc
 50
-30.605731047712577
 51
-26.759568755872237
  0
ARC
  5
71c0b942
330
1F
  8
Layer
100
AcDbEntity
  6
CONTINUOUS
100
AcDbCircle
 10
-0.39608012746843113
 20
0.9559085136193053
 30
0.0
 40
0.10082704980846315
100
AcDbArc
 50
-35.90619226134099
 51
-30.60573104774566
  0
ARC
  5
9ccb2f45
330
1F
  8
Layer
100
AcDbEntity
  6
CONTINUOUS
100
AcDbCircle
 10
0.292871884938261
 20
0.45707694516638253
 30
0.0
 40
0.7497538158853477
100
AcDbArc
 50
144.0938077386871
 51
145.843932861611
  0
ARC
  5
1f40879b
330
1F
  8
Layer
100
AcDbEntity
  6
CONTINUOUS
100
AcDbCircle
 10
-0.2909970983323671
 20
0.8532197718893288
 30
0.0
 40
0.044181616327058415
100
AcDbArc
 50
145.84393286161676
 51
174.93455367422703
  0
ARC
  5
fc147dd1
330
1F
  8
Layer
100
AcDbEntity
  6
CONTINUOUS
100
AcDbCircle
 10
-0.29893618321861837
 20
0.8539234905956354
 30
0.0
 40
0.03621140372959859
100
AcDbArc
 50
174.9345536742011
 51
-150.04853627513086
  0
ARC
  5
6e0068e1
330
1F
  8
Layer
100
AcDbEntity
  6
CONTINUOUS
100
AcDbCircle
 10
-0.2602771699737938
 20
0.8761996386494189
 30
0.0
 40
0.080829181320796
100
AcDbArc
 50
-150.04853627509976
 51
-126.81497332158466
  0
ARC
  5
6d6ab68b
330
1F
  8
Layer
100
AcDbEntity
  6
CONTINUOUS
100
AcDbCircle
 10
-0.2911322592052237
 20
0.8349772533719959
 30
0.0
 40
0.02933819590160107
100
AcDbArc
 50
-126.81497332159442
 51
-105.40263720946422
  0
ARC
  5
5d3f1711
330
1F
  8
Layer
100
AcDbEntity
  6
CONTINUOUS
100
AcDbCircle
 10
-0.30551442194740197
 20
0.782772526415138
 30
0.0
 40
0.02481141279303916
100
AcDbArc
 50
49.21851532270583
 51
74.59736279051498
  0
ARC
  5
eb423aad
330
1F
  8
Layer
100
AcDbEntity
  6
CONTINUOUS
100
AcDbCircle
 10
-0.29904848768589964
 20
0.7902682790790874
 30
0.0
 40
0.014912189900651468
100
AcDbArc
 50
-5.5683960253708396
 51
49.2185153227297
  0
ARC
  5
95e2a96a
330
1F
  8
Layer
100
AcDbEntity
  6
CONTINUOUS
100
AcDbCircle
 10
-0.3601282858135906
 20
0.7962231923635656
 30
0.0
 40
0.0762815856247833
100
AcDbArc
 50
-19.990948195711514
 51
-5.568396025378953
  0
ARC
  5
8facffcb
330
1F
  8
Layer
100
AcDbEntity
  6
CONTINUOUS
100
AcDbCircle
 10
-0.43586118064700585
 20
0.8237741630487119
 30
0.0
 40
0.15687021599869438
100
AcDbArc
 50
-33.78661875752101
 51
-19.99094819570348
  0
ARC
  5
d8d2049a
330
1F
  8
Layer
100
AcDbEntity
  6
CONTINUOUS
100
AcDbCircle
 10
-0.32289707828616354
 20
0.7481894875552377
 30
0.0
 40
0.02095137406850285
100
AcDbArc
 50
-64.88032561643776
 51
-33.78661875751614
  0
ARC
  5
dcfdc353
330
1F
  8
Layer
100
AcDbEntity
  6
CONTINUOUS
100
AcDbCircle
 10
-0.3177195954887546
 20
0.7371466180783102
 30
0.0
 40
0.00875501008566304
100
AcDbArc
 50
-130.3140846806009
 51
-64.88032561644559
  0
ARC
  5
7917df33
330
1F
  8
Layer
100
AcDbEntity
  6
CONTINUOUS
100
AcDbCircle
 10
-0.29470154285737316
 20
0.7642750521081589
 30
0.0
 40
0.044332849815653275
100
AcDbArc
 50
-147.42615375825144
 51
-130.31408468061133
  0
ARC
  5
081fc12d
330
1F
  8
Layer
100
AcDbEntity
  6
CONTINUOUS
100
AcDbCircle
 10
-0.044642877426119165
 20
0.9240334589242973
 30
0.0
 40
0.34106856506693806
100
AcDbArc
 50
-151.70870410810792
 51
-147.42615375825457
  0
ARC
  5
13c1a0c9
330
1F
  8
Layer
100
AcDbEntity
  6
CONTINUOUS
100
AcDbCircle
 10
-0.3733711029617004
 20
0.7470959581640446
 30
0.0
 40
0.032253180132905734
100
AcDbArc
 50
28.291295891869094
 51
52.89788403760974
  0
ARC
  5
5a7548bc
330
1F
  8
Layer
100
AcDbEntity
  6
CONTINUOUS
100
AcDbCircle
 10
-0.36242826017302443
 20
0.7615638793366253
 30
0.0
 40
0.01411298853100466
100
AcDbArc
 50
52.897884037617516
 51
84.23933458887929
  0
ARC
  5
ca7c764f
330
1F
  8
Layer
100
AcDbEntity
  6
CONTINUOUS
100
AcDbCircle
 10
-0.3622694884336206
 20
0.7631377039096259
 30
0.0
 40
0.012531175567404226
100
AcDbArc
 50
84.23933458887808
 51
117.55433478332054
  0
ARC
  5
d15fd5e1
330
1F
  8
Layer
100
AcDbEntity
  6
CONTINUOUS
100
AcDbCircle
 10
-0.35593845927384704
 20
0.7510040179298467
 30
0.0
 40
0.02621723656674921
100
AcDbArc
 50
117.55433478332594
 51
142.42556622649232
  0
ARC
  5
08972f8f
330
1F
  8
Layer
100
AcDbEntity
  6
CONTINUOUS
100
AcDbCircle
 10
-0.25381147541919025
 20
0.6724282243301476
 30
0.0
 40
0.15507404147464626
100
AcDbArc
 50
142.4255662264731
 51
152.58513274357202
  0
ARC
  5
6b344828
330
1F
  8
Layer
100
AcDbEntity
  6
CONTINUOUS
100
AcDbCircle
 10
-0.02464608893446929
 20
0.553564718825232
 30
0.0
 40
0.41323156567955627
100
AcDbArc
 50
152.58513274359376
 51
158.2508970308102
  0
ARC
  5
2a4a99b3
330
1F
  8
Layer
100
AcDbEntity
  6
CONTINUOUS
100
AcDbCircle
 10
0.08224758744738914
 20
0.5109204061343029
 30
0.0
 40
0.5283176006938491
100
AcDbArc
 50
158.25089703079598
 51
167.236163464738
  0
ARC
  5
f8bd07ce
330
1F
  8
Layer
100
AcDbEntity
  6
CONTINUOUS
100
AcDbCircle
 10
-0.014787468192126951
 20
0.5329018320029022
 30
0.0
 40
0.4288239571472355
100
AcDbArc
 50
167.23616346474316
 51
-178.14734718682385
  0
ARC
  5
b29f4540
330
1F
  8
Layer
100
AcDbEntity
  6
CONTINUOUS
100
AcDbCircle
 10
-0.19258869876286888
 20
0.5271506439908535
 30
0.0
 40
0.25092973645409433
100
AcDbArc
 50
-178.14734718682564
 51
-159.00256237086998
  0
ARC
  5
57e471f0
330
1F
  8
Layer
100
AcDbEntity
  6
CONTINUOUS
100
AcDbCircle
 10
-0.21526171536999517
 20
0.5184484517192465
 30
0.0
 40
0.22664406511482454
100
AcDbArc
 50
-159.002562370876
 51
-147.71583344052686
  0
ARC
  5
84b10555
330
1F
  8
Layer
100
AcDbEntity
  6
CONTINUOUS
100
AcDbCircle
 10
-0.3091234373243532
 20
0.45914783225197575
 30
0.0
 40
0.11561890437438908
100
AcDbArc
 50
-147.71583344050393
 51
-138.42617260947907
  0
ARC
  5
52129666
330
1F
  8
Layer
100
AcDbEntity
  6
CONTINUOUS
100
AcDbCircle
 10
-0.3674386766656492
 20
0.40742075697048485
 30
0.0
 40
0.03766791043197977
100
AcDbArc
 50
-138.42617260948015
 51
-121.229889517323
  0
ARC
  5
3b584262
330
1F
  8
Layer
100
AcDbEntity
  6
CONTINUOUS
100
AcDbCircle
 10
-0.3803450053727664
 20
0.3861349433212209
 30
0.0
 40
0.012774955938642764
100
AcDbArc
 50
-121.22988951735677
 51
-51.44986981845012
  0
ARC
  5
57a1cdea
330
1F
  8
Layer
100
AcDbEntity
  6
CONTINUOUS
100
AcDbCircle
 10
-0.3895421708590323
 20
0.3976766228293678
 30
0.0
 40
0.02753294424499886
100
AcDbArc
 50
-51.44986981845681
 51
-26.19942131468383
  0
ARC
  5
8551766e
330
1F
  8
Layer
100
AcDbEntity
  6
CONTINUOUS
100
AcDbCircle
 10
-0.4474949745787571
 20
0.42619221048146305
 30
0.0
 40
0.09212138127610625
100
AcDbArc
 50
-26.19942131466517
 51
-12.473738796803094
  0
ARC
  5
365714ad
330
1F
  8
Layer
100
AcDbEntity
  6
CONTINUOUS
100
AcDbCircle
 10
-0.664717940132862
 20
0.47424493683923896
 30
0.0
 40
0.31459583211155495
100
AcDbArc
 50
-12.473738796813791
 51
-9.626622607894426
  0
ARC
  5
5ad54fd3
330
1F
  8
Layer
100
AcDbEntity
  6
CONTINUOUS
100
AcDbCircle
 10
-0.2289719638090848
 20
0.4003357427448333
 30
0.0
 40
0.1273737650940054
100
AcDbArc
 50
163.33769250465116
 51
170.3733773920937
  0
ARC
  5
a5b5f532
330
1F
  8
Layer
100
AcDbEntity
  6
CONTINUOUS
100
AcDbCircle
 10
-0.1351454264807892
 20
0.3722536995698811
 30
0.0
 40
0.22531262487855663
100
AcDbArc
 50
150.75378798540416
 51
163.33769250467336
  0
ARC
  5
2255dd46
330
1F
  8
Layer
100
AcDbEntity
  6
CONTINUOUS
100
AcDbCircle
 10
-0.17392337007242098
 20
0.3939670237824786
 30
0.0
 40
0.1808694324014503
100
AcDbArc
 50
140.20475937642814
 51
150.75378798540086
  0
ARC
  5
1e88ecc9
330
1F
  8
Layer
100
AcDbEntity
  6
CONTINUOUS
100
AcDbCircle
 10
-0.25390924081163946
 20
0.46059748329205985
 30
0.0
 40
0.07676680201984595
100
AcDbArc
 50
119.92189704261688
 51
140.2047593764107
  0
ARC
  5
978509d9
330
1F
  8
Layer
100
AcDbEntity
  6
CONTINUOUS
100
AcDbCircle
 10
-0.2822566736228511
 20
0.5098516107259805
 30
0.0
 40
0.019937707215661054
100
AcDbArc
 50
79.49651712394393
 51
119.92189704262617
  0
ARC
  5
bb1b4b85
330
1F
  8
Layer
100
AcDbEntity
  6
CONTINUOUS
100
AcDbCircle
 10
-0.28212961050723884
 20
0.5105369494466283
 30
0.0
 40
0.0192406891403082
100
AcDbArc
 50
38.656353213584154
 51
79.49651712395816
  0
ARC
  5
d6c8e41c
330
1F
  8
Layer
100
AcDbEntity
  6
CONTINUOUS
100
AcDbCircle
 10
-0.20125395435755955
 20
0.5752294765536903
 30
0.0
 40
0.08432568967607802
100
AcDbArc
 50
-141.34364678643638
 51
-132.2114598924828
  0
ARC
  5
5a1dba1d
330
1F
  8
Layer
100
AcDbEntity
  6
CONTINUOUS
100
AcDbCircle
 10
-0.22358061665385187
 20
0.5506164934973148
 30
0.0
 40
0.05109499927960751
100
AcDbArc
 50
-132.21145989251676
 51
-118.80599695679994
  0
ARC
  5
90e06067
330
1F
  8
Layer
100
AcDbEntity
  6
CONTINUOUS
100
AcDbCircle
 10
-0.24188517309861268
 20
0.5173288823651607
 30
0.0
 40
0.013106555753648417
100
AcDbArc
 50
-118.80599695672895
 51
-51.55797770221431
  0
ARC
  5
02f59990
330
1F
  8
Layer
100
AcDbEntity
  6
CONTINUOUS
100
AcDbCircle
 10
-0.24618755994849018
 20
0.5227489726149381
 30
0.0
 40
0.020026664923431838
100
AcDbArc
 50
-51.55797770229891
 51
-26.24866076870395
  0
ARC
  5
a31f1cf6
330
1F
  8
Layer
100
AcDbEntity
  6
CONTINUOUS
100
AcDbCircle
 10
-0.3270469166737717
 20
0.5626220449213823
 30
0.0
 40
0.11018262681825806
100
AcDbArc
 50
-26.248660768646218
 51
-15.530384876250498
  0
ARC
  5
0a1a7ae1
330
1F
  8
Layer
100
AcDbEntity
  6
CONTINUOUS
100
AcDbCircle
 10
-0.5811226004040786
 20
0.6332285925989989
 30
0.0
 40
0.3738865093038488
100
AcDbArc
 50
-15.530384876289606
 51
-10.509133313486002
  0
ARC
  5
1d901e39
330
1F
  8
Layer
100
AcDbEntity
  6
CONTINUOUS
100
AcDbCircle
 10
-0.13405655115015613
 20
0.5502960826454908
 30
0.0
 40
0.08080663293902683
100
AcDbArc
 50
156.95714390371057
 51
169.49086668654573
  0
ARC
  5
192dcb0c
330
1F
  8
Layer
100
AcDbEntity
  6
CONTINUOUS
100
AcDbCircle
 10
-0.18007650342067372
 20
0.569871030458095
 30
0.0
 40
0.030796488079739878
100
AcDbArc
 50
135.28044232067015
 51
156.95714390370077
  0
ARC
  5
3557306a
330
1F
  8
Layer
100
AcDbEntity
  6
CONTINUOUS
100
AcDbCircle
 10
-0.16494743745987517
 20
0.5548893470086638
 30
0.0
 40
0.05208825822280507
100
AcDbArc
 50
113.57563402279408
 51
135.28044232064255
  0
ARC
  5
c7313c44
330
1F
  8
Layer
100
AcDbEntity
  6
CONTINUOUS
100
AcDbCircle
 10
-0.12988201672953736
 20
0.474534640978294
 30
0.0
 40
0.1397607311674117
100
AcDbArc
 50
106.75944443634782
 51
113.57563402282257
  0
ARC
  5
c3ba04af
330
1F
  8
Layer
100
AcDbEntity
  6
CONTINUOUS
100
AcDbCircle
 10
-0.17675228741840154
 20
0.6301745316901336
 30
0.0
 40
0.02278341008425243
100
AcDbArc
 50
-73.24055556367861
 51
-50.57015666611774
  0
ARC
  5
f1b8b7fa
330
1F
  8
Layer
100
AcDbEntity
  6
CONTINUOUS
100
AcDbCircle
 10
-0.17465585109303916
 20
0.6276249969837574
 30
0.0
 40
0.019482626467394504
100
AcDbArc
 50
-50.570156666066275
 51
-7.383855276569771
  0
ARC
  5
49998971
330
1F
  8
Layer
100
AcDbEntity
  6
CONTINUOUS
100
AcDbCircle
 10
-0.24632084697196088
 20
0.6369121213137887
 30
0.0
 40
0.09174687982026243
100
AcDbArc
 50
-7.383855276618759
 51
4.770975679234172
  0
ARC
  5
416b823c
330
1F
  8
Layer
100
AcDbEntity
  6
CONTINUOUS
100
AcDbCircle
 10
-0.47432451560213473
 20
0.617882427625512
 30
0.0
 40
0.320543300576111
100
AcDbArc
 50
4.770975679254966
 51
6.8965371985581845
  0
ARC
  5
0b11bdce
330
1F
  8
Layer
100
AcDbEntity
  6
CONTINUOUS
100
AcDbCircle
 10
-0.13479469989639825
 20
0.6589492293624375
 30
0.0
 40
0.021461053136048094
100
AcDbArc
 50
165.35742783100162
 51
-173.1034628014579
  0
ARC
  5
679458b7
330
1F
  8
Layer
100
AcDbEntity
  6
CONTINUOUS
100
AcDbCircle
 10
-0.11429116194323741
 20
0.6535921863090126
 30
0.0
 40
0.04265286709504999
100
AcDbArc
 50
141.21080524212974
 51
165.35742783102816
  0
ARC
  5
ed554a68
330
1F
  8
Layer
100
AcDbEntity
  6
CONTINUOUS
100
AcDbCircle
 10
-0.12116098802943776
 20
0.6591135355425977
 30
0.0
 40
0.033839252183230493
100
AcDbArc
 50
120.8083436585851
 51
141.2108052421207
  0
ARC
  5
f3a903ef
330
1F
  8
Layer
100
AcDbEntity
  6
CONTINUOUS
100
AcDbCircle
 10
-0.12942578811646777
 20
0.672973277360341
 30
0.0
 40
0.017702357694728787
100
AcDbArc
 50
102.47642742200836
 51
120.80834365857581
  0
ARC
  5
57ecd5e5
330
1F
  8
Layer
100
AcDbEntity
  6
CONTINUOUS
100
AcDbCircle
 10
-0.13043049250800576
 20
0.677514046078554
 30
0.0
 40
0.013051765101662718
100
AcDbArc
 50
81.0939531825907
 51
102.476427421994
  0
ARC
  5
1cab5d6a
330
1F
  8
Layer
100
AcDbEntity
  6
CONTINUOUS
100
AcDbCircle
 10
-0.08017208877752702
 20
0.9982360475265732
 30
0.0
 40
0.31158419926205133
100
AcDbArc
 50
-98.9060468174255
 51
-97.12605791528688
  0
ARC
  5
d458f482
330
1F
  8
Layer
100
AcDbEntity
  6
CONTINUOUS
100
AcDbCircle
 10
-0.11706049528127971
 20
0.7031723772219773
 30
0.0
 40
0.014223603237619595
100
AcDbArc
 50
-97.1260579152629
 51
-59.58342933186519
  0
ARC
  5
34e2b32d
330
1F
  8
Layer
100
AcDbEntity
  6
CONTINUOUS
100
AcDbCircle
 10
-0.11641428412048094
 20
0.7020716664537552
 30
0.0
 40
0.012947220434687526
100
AcDbArc
 50
-59.583429331848855
 51
-11.399954976659293
  0
ARC
  5
d8d10695
330
1F
  8
Layer
100
AcDbEntity
  6
CONTINUOUS
100
AcDbCircle
 10
-0.18649657464019342
 20
0.7162026776790513
 30
0.0
 40
0.08443996777830917
100
AcDbArc
 50
-11.399954976663897
 51
-0.5684083324654089
  0
ARC
  5
a31e6710
330
1F
  8
Layer
100
AcDbEntity
  6
CONTINUOUS
100
AcDbCircle
 10
-3.3823650362311524
 20
0.7479086405791502
 30
0.0
 40
3.2804657016977306
100
AcDbArc
 50
-0.5684083324772277
 51
-0.09136273751287709
  0
ARC
  5
5c75a15f
330
1F
  8
Layer
100
AcDbEntity
  6
CONTINUOUS
100
AcDbCircle
 10
-0.03861521272741797
 20
0.7425767575162696
 30
0.0
 40
0.06328837286550548
100
AcDbArc
 50
159.68206476824537
 51
179.90863726246766
  0
ARC
  5
85676e1d
330
1F
  8
Layer
100
AcDbEntity
  6
CONTINUOUS
100
AcDbCircle
 10
-0.054925148370087884
 20
0.7486157906663695
 30
0.0
 40
0.045896307949112196
100
AcDbArc
 50
147.34383060543493
 51
159.68206476824562
  0
ARC
  5
9bb11a82
330
1F
  8
Layer
100
AcDbEntity
  6
CONTINUOUS
100
AcDbCircle
 10
0.06833515187068229
 20
0.6696171743307648
 30
0.0
 40
0.19229946023206154
100
AcDbArc
 50
137.79303594281927
 51
147.3438306054352
  0
ARC
  5
3222c432
330
1F
  8
Layer
100
AcDbEntity
  6
CONTINUOUS
100
AcDbCircle
 10
-0.02192604216173777
 20
0.7514810204414963
 30
0.0
 40
0.07044392097266053
100
AcDbArc
 50
124.80123010441672
 51
137.79303594282175
  0
ARC
  5
6f12eff7
330
1F
  8
Layer
100
AcDbEntity
  6
CONTINUOUS
100
AcDbCircle
 10
-0.0571886644252404
 20
0.8022149604390088
 30
0.0
 40
0.008658929295315934
100
AcDbArc
 50
87.15074064013972
 51
124.80123010439016
  0
ARC
  5
79aeba73
330
1F
  8
Layer
100
AcDbEntity
  6
CONTINUOUS
100
AcDbCircle
 10
-0.057026332875169006
 20
0.8054765955890384
 30
0.0
 40
0.005393257023935916
100
AcDbArc
 50
35.99001513333412
 51
87.15074064016498
  0
ARC
  5
619d915b
330
1F
  8
Layer
100
AcDbEntity
  6
CONTINUOUS
100
AcDbCircle
 10
-0.07118554578837277
 20
0.7951930947856118
 30
0.0
 40
0.022892791277610167
100
AcDbArc
 50
11.795355380367067
 51
35.9900151333011
  0
ARC
  5
dea2cfca
330
1F
  8
Layer
100
AcDbEntity
  6
CONTINUOUS
100
AcDbCircle
 10
-0.13878378522966117
 20
0.7810768056423114
 30
0.0
 40
0.09194922902775048
100
AcDbArc
 50
0.43188830615738
 51
11.795355380378261
  0
ARC
  5
64906bf5
330
1F
  8
Layer
100
AcDbEntity
  6
CONTINUOUS
100
AcDbCircle
 10
-11.6357743145731
 20
0.6944123103791042
 30
0.0
 40
11.5892663928948
100
AcDbArc
 50
0.19584941045542348
 51
0.43188830617947066
  0
ARC
  5
f55a1444
330
1F
  8
Layer
100
AcDbEntity
  6
CONTINUOUS
100
AcDbCircle
 10
1.1590094021881805
 20
0.7381478285758571
 30
0.0
 40
1.2055920726862641
100
AcDbArc
 50
-179.804150589556
 51
-177.77543464649253
  0
ARC
  5
8ac5a535
330
1F
  8
Layer
100
AcDbEntity
  6
CONTINUOUS
100
AcDbCircle
 10
-0.19455767416055658
 20
0.6855678236526932
 30
0.0
 40
0.14899586727665573
100
AcDbArc
 50
-6.624309173257277
 51
2.2245653535246537
  0
ARC
  5
9251c4e9
330
1F
  8
Layer
100
AcDbEntity
  6
CONTINUOUS
100
AcDbCircle
 10
-0.10528126038382113
 20
0.6751998034124311
 30
0.0
 40
0.05911943042840604
100
AcDbArc
 50
-21.637593208950147
 51
-6.624309173253361
  0
ARC
  5
3b5cd0ca
330
1F
  8
Layer
100
AcDbEntity
  6
CONTINUOUS
100
AcDbCircle
 10
-0.06257450220551997
 20
0.6582585797331728
 30
0.0
 40
0.013175200607343915
100
AcDbArc
 50
-73.7373587570556
 51
-21.637593208966024
  0
ARC
  5
212dbcb8
330
1F
  8
Layer
100
AcDbEntity
  6
CONTINUOUS
100
AcDbCircle
 10
-0.07260310695320293
 20
0.6926369285391762
 30
0.0
 40
0.04898642482283826
100
AcDbArc
 50
-81.6651980600005
 51
-73.73735875702143
  0
ARC
  5
c2591a46
330
1F
  8
Layer
100
AcDbEntity
  6
CONTINUOUS
100
AcDbCircle
 10
-0.0635587651626488
 20
0.6309027512466565
 30
0.0
 40
0.01340675400632964
100
AcDbArc
 50
98.3348019400329
 51
127.59588362696731
  0
ARC
  5
dc3e0c51
330
1F
  8
Layer
100
AcDbEntity
  6
CONTINUOUS
100
AcDbCircle
 10
-0.06046704104122247
 20
0.6268874689346916
 30
0.0
 40
0.018474421131130778
100
AcDbArc
 50
127.59588362690992
 51
166.8526645722734
  0
ARC
  5
cbdfe478
330
1F
  8
Layer
100
AcDbEntity
  6
CONTINUOUS
100
AcDbCircle
 10
-0.05316306525886927
 20
0.6251814182864038
 30
0.0
 40
0.025974999178436046
100
AcDbArc
 50
166.85266457231415
 51
-160.23322674705688
  0
ARC
  5
5b415e7d
330
1F
  8
Layer
100
AcDbEntity
  6
CONTINUOUS
100
AcDbCircle
 10
-0.013354980172048503
 20
0.6394871386498784
 30
0.0
 40
0.06827555796194974
100
AcDbArc
 50
-160.233226747063
 51
-144.55668543040807
  0
ARC
  5
d50c8da7
330
1F
  8
Layer
100
AcDbEntity
  6
CONTINUOUS
100
AcDbCircle
 10
-0.16468061471526685
 20
0.5317733392826034
 30
0.0
 40
0.11747080201326353
100
AcDbArc
 50
26.350760486595725
 51
35.44331456958532
  0
ARC
  5
f2b74714
330
1F
  8
Layer
100
AcDbEntity
  6
CONTINUOUS
100
AcDbCircle
 10
-0.09325716428723951
 20
0.5671517746037678
 30
0.0
 40
0.037765451146343935
100
AcDbArc
 50
10.85724911108054
 51
26.350760486576387
  0
ARC
  5
94570199
330
1F
  8
Layer
100
AcDbEntity
  6
CONTINUOUS
100
AcDbCircle
 10
-0.06987278103195771
 20
0.5716368044949462
 30
0.0
 40
0.01395484692564702
100
AcDbArc
 50
-47.49217747462369
 51
10.857249111122728
  0
ARC
  5
51844bcc
330
1F
  8
Layer
100
AcDbEntity
  6
CONTINUOUS
100
AcDbCircle
 10
-0.07914515184525883
 20
0.5817530483722655
 30
0.0
 40
0.027677647320783712
100
AcDbArc
 50
-75.7022531313692
 51
-47.49217747464713
  0
ARC
  5
840011d2
330
1F
  8
Layer
100
AcDbEntity
  6
CONTINUOUS
100
AcDbCircle
 10
-0.06372360161558044
 20
0.521241954644154
 30
0.0
 40
0.034767662156059594
100
AcDbArc
 50
104.29774686862386
 51
126.67078868034372
  0
ARC
  5
3b84e957
330
1F
  8
Layer
100
AcDbEntity
  6
CONTINUOUS
100
AcDbCircle
 10
-0.07495243165563736
 20
0.5363226257834859
 30
0.0
 40
0.01596571369104238
100
AcDbArc
 50
126.67078868032837
 51
171.21368934390316
  0
ARC
  5
4c994239
330
1F
  8
Layer
100
AcDbEntity
  6
CONTINUOUS
100
AcDbCircle
 10
-0.07297544994161798
 20
0.5360170564950695
 30
0.0
 40
0.01796617096066613
100
AcDbArc
 50
171.21368934400104
 51
-166.6294258016189
  0
ARC
  5
16bb3a7f
330
1F
  8
Layer
100
AcDbEntity
  6
CONTINUOUS
100
AcDbCircle
 10
-0.03825294019486769
 20
0.5442702826555141
 30
0.0
 40
0.05365606343975022
100
AcDbArc
 50
-166.62942580169727
 51
-152.96387591920097
  0
ARC
  5
69442514
330
1F
  8
Layer
100
AcDbEntity
  6
CONTINUOUS
100
AcDbCircle
 10
-0.21752345678888863
 20
0.45278497542252105
 30
0.0
 40
0.1476086367920641
100
AcDbArc
 50
17.823470763297436
 51
27.036124080801066
  0
ARC
  5
85a66ecd
330
1F
  8
Layer
100
AcDbEntity
  6
CONTINUOUS
100
AcDbCircle
 10
-0.12650463954454083
 20
0.4820490546540033
 30
0.0
 40
0.05200104595416894
100
AcDbArc
 50
-4.82214005027389
 51
17.82347076331412
  0
ARC
  5
e845fab1
330
1F
  8
Layer
100
AcDbEntity
  6
CONTINUOUS
100
AcDbCircle
 10
-0.11782736602658805
 20
0.48131702684106004
 30
0.0
 40
0.04329294969699056
100
AcDbArc
 50
-29.674109967173244
 51
-4.82214005026747
  0
ARC
  5
23d66b63
330
1F
  8
Layer
100
AcDbEntity
  6
CONTINUOUS
100
AcDbCircle
 10
-0.13743453921070903
 20
0.49248902168285213
 30
0.0
 40
0.06585962222568073
100
AcDbArc
 50
-38.09955342159475
 51
-29.674109967201506
  0
ARC
  5
a4256d0d
330
1F
  8
Layer
100
AcDbEntity
  6
CONTINUOUS
100
AcDbCircle
 10
-0.12238551367193229
 20
0.4806892677886101
 30
0.0
 40
0.04673614551166653
100
AcDbArc
 50
-48.10500123171814
 51
-38.09955342161133
  0
ARC
  5
6e5b61d8
330
1F
  8
Layer
100
AcDbEntity
  6
CONTINUOUS
100
AcDbCircle
 10
-0.09385555480258323
 20
0.44888652479515323
 30
0.0
 40
0.004011761197850906
100
AcDbArc
 50
-125.92894019722802
 51
-48.10500123167985
  0
ARC
  5
36cd768d
330
1F
  8
Layer
100
AcDbEntity
  6
CONTINUOUS
100
AcDbCircle
 10
-0.07678222747648378
 20
0.47244733762855806
 30
0.0
 40
0.03310833156885605
100
AcDbArc
 50
-140.11953806526392
 51
-125.92894019727048
  0
ARC
  5
abd5eb29
330
1F
  8
Layer
100
AcDbEntity
  6
CONTINUOUS
100
AcDbCircle
 10
-2.97263463176116
 20
-1.947183714362336
 30
0.0
 40
3.7405603840393247
100
AcDbArc
 50
39.88046193478664
 51
40.09920102819112
  0
ARC
  5
5881c55c
330
1F
  8
Layer
100
AcDbEntity
  6
CONTINUOUS
100
AcDbCircle
 10
-0.12606694201903434
 20
0.4497810162866671
 30
0.0
 40
0.019218215915159133
100
AcDbArc
 50
40.09920102822848
 51
77.77348988298085
  0
ARC
  5
488a436e
330
1F
  8
Layer
100
AcDbEntity
  6
CONTINUOUS
100
AcDbCircle
 10
-0.12519875442372919
 20
0.4537875671477958
 30
0.0
 40
0.015118679416546824
100
AcDbArc
 50
77.77348988294563
 51
127.90546448131418
  0
ARC
  5
a62c9471
330
1F
  8
Layer
100
AcDbEntity
  6
CONTINUOUS
100
AcDbCircle
 10
-0.09682778723845886
 20
0.41735062487644936
 30
0.0
 40
0.06129835612733728
100
AcDbArc
 50
127.90546448131691
 51
143.38095798834084
  0
ARC
  5
9c2fce93
330
1F
  8
Layer
100
AcDbEntity
  6
CONTINUOUS
100
AcDbCircle
 10
-0.04272353781447369
 20
0.37714135733501863
 30
0.0
 40
0.1287079622821807
100
AcDbArc
 50
143.38095798837566
 51
151.43143718134903
  0
ARC
  5
07b0b669
330
1F
  8
Layer
100
AcDbEntity
  6
CONTINUOUS
100
AcDbCircle
 10
0.08126812182681142
 20
0.3096271389329712
 30
0.0
 40
0.2698890564380191
100
AcDbArc
 50
151.43143718130924
 51
160.82212389323186
  0
ARC
  5
9fc3bf81
330
1F
  8
Layer
100
AcDbEntity
  6
CONTINUOUS
100
AcDbCircle
 10
0.12355556869962281
 20
0.29491939824362245
 30
0.0
 40
0.3146612107217476
100
AcDbArc
 50
160.82212389324457
 51
166.91992806697394
  0
ARC
  5
f23cfc1a
330
1F
  8
Layer
100
AcDbEntity
  6
CONTINUOUS
100
AcDbCircle
 10
-0.44834117749024927
 20
0.42779427369210254
 30
0.0
 40
0.2724687755913452
100
AcDbArc
 50
-20.1232462390498
 51
-13.08007193303734
  0
ARC
  5
7fb20a2c
330
1F
  8
Layer
100
AcDbEntity
  6
CONTINUOUS
100
AcDbCircle
 10
-0.337527384886239
 20
0.3871911959911345
 30
0.0
 40
0.15445052890857494
100
AcDbArc
 50
-30.94118018979946
 51
-20.12324623905774
  0
ARC
  5
508463a3
330
1F
  8
Layer
100
AcDbEntity
  6
CONTINUOUS
100
AcDbCircle
 10
-0.26667921409244677
 20
0.34472025086248603
 30
0.0
 40
0.07184759624303885
100
AcDbArc
 50
-64.91491241682317
 51
-30.941180189779047
  0
ARC
  5
6f51876a
330
1F
  8
Layer
100
AcDbEntity
  6
CONTINUOUS
100
AcDbCircle
 10
-0.3347227054914139
 20
0.49007602291436325
 30
0.0
 40
0.23234126337840766
100
AcDbArc
 50
-68.45048450701469
 51
-64.91491241684659
  0
ARC
  5
efc9a3c2
330
1F
  8
Layer
100
AcDbEntity
  6
CONTINUOUS
100
AcDbCircle
 10
-0.10379015008692005
 20
-0.0946979010126403
 30
0.0
 40
0.3963799683695231
100
AcDbArc
 50
111.5495154929951
 51
119.84362569805042
  0
ARC
  5
a289ac7f
330
1F
  8
Layer
100
AcDbEntity
  6
CONTINUOUS
100
AcDbCircle
 10
-0.09169834156513645
 20
-0.11577416114201444
 30
0.0
 40
0.4206785398165962
100
AcDbArc
 50
119.84362569805461
 51
127.71717025017105
  0
ARC
  5
57cf0988
330
1F
  8
Layer
100
AcDbEntity
  6
CONTINUOUS
100
AcDbCircle
 10
0.044814166460588334
 20
-0.29229135513603355
 30
0.0
 40
0.6438241976793374
100
AcDbArc
 50
127.71717025016912
 51
134.07989637749702
  0
ARC
  5
88d45829
330
1F
  8
Layer
100
AcDbEntity
  6
CONTINUOUS
100
AcDbCircle
 10
-0.8632392944833267
 20
0.6454052548110154
 30
0.0
 40
0.6614865010580973
100
AcDbArc
 50
-47.110035577422444
 51
-45.920103622528096
  0
ARC
  5
cd67c20e
330
1F
  8
Layer
100
AcDbEntity
  6
CONTINUOUS
100
AcDbCircle
 10
-0.4201266127013952
 20
0.16839169395998121
 30
0.0
 40
0.010417544655045564
100
AcDbArc
 50
-78.23851976459744
 51
-47.11003557732428
  0
ARC
  5
cea2aabd
330
1F
  8
Layer
100
AcDbEntity
  6
CONTINUOUS
100
AcDbCircle
 10
-0.4236511570480461
 20
0.1853195813957269
 30
0.0
 40
0.027708460937556058
100
AcDbArc
 50
-102.39926927901176
 51
-78.23851976467233
  0
ARC
  5
4975de0f
330
1F
  8
Layer
100
AcDbEntity
  6
CONTINUOUS
100
AcDbCircle
 10
-0.3902410003245915
 20
0.3372869298378607
 30
0.0
 40
0.18330509832030498
100
AcDbArc
 50
-113.9021368306133
 51
-102.39926927897488
  0
ARC
  5
2f678ae8
330
1F
  8
Layer
100
AcDbEntity
  6
CONTINUOUS
100
AcDbCircle
 10
-0.33336825171192164
 20
0.46561466059076584
 30
0.0
 40
0.32367074944247276
100
AcDbArc
 50
-122.25295966568363
 51
-113.9021368306242
  0
ARC
  5
d2aed90b
330
1F
  8
Layer
100
AcDbEntity
  6
CONTINUOUS
100
AcDbCircle
 10
-0.28675293680932246
 20
0.5394870073595899
 30
0.0
 40
0.4110212571719751
100
AcDbArc
 50
-135.55049347043533
 51
-122.25295966568058
  0
ARC
  5
f3edf5a5
330
1F
  8
Layer
100
AcDbEntity
  6
CONTINUOUS
100
AcDbCircle
 10
-0.33788713688155525
 20
0.48932607314396503
 30
0.0
 40
0.3393914746900254
100
AcDbArc
 50
-145.56522857836742
 51
-135.5504934704248
  0
ARC
  5
b2056fb1
330
1F
  8
Layer
100
AcDbEntity
  6
CONTINUOUS
100
AcDbCircle
 10
-0.3782228965949619
 20
0.46167163182525894
 30
0.0
 40
0.29048603903807135
100
AcDbArc
 50
-156.39254189387327
 51
-145.56522857837373
  0
ARC
  5
8a3490b8
330
1F
  8
Layer
100
AcDbEntity
  6
CONTINUOUS
100
AcDbCircle
 10
0.22950357007489663
 20
0.7272750081422508
 30
0.0
 40
0.9537179832340795
100
AcDbArc
 50
-160.63540918804372
 51
-156.39254189387444
  0
ARC
  5
cb0e765c
330
1F
  8
Layer
100
AcDbEntity
  6
CONTINUOUS
100
AcDbCircle
 10
-0.44016633593779986
 20
0.491912090896655
 30
0.0
 40
0.24389160598862236
100
AcDbArc
 50
-169.03117649113673
 51
-160.6354091880477
  0
ARC
  5
f7864285
330
1F
  8
Layer
100
AcDbEntity
  6
CONTINUOUS
100
AcDbCircle
 10
-0.5276413865850309
 20
0.4749580547310377
 30
0.0
 40
0.15478872260070503
100
AcDbArc
 50
176.97282558712683
 51
-169.0311764911178
  0
ARC
  5
76bf2605
330
1F
  8
Layer
100
AcDbEntity
  6
CONTINUOUS
100
AcDbCircle
 10
-0.6255021647064889
 20
0.4801332631315314
 30
0.0
 40
0.056791198772162856
100
AcDbArc
 50
153.76547586909317
 51
176.9728255871137
  0
ARC
  5
7b299d44
330
1F
  8
Layer
100
AcDbEntity
  6
CONTINUOUS
100
AcDbCircle
 10
-0.6348404014030984
 20
0.4847352365550066
 30
0.0
 40
0.04638058764734059
100
AcDbArc
 50
123.98441098096586
 51
153.76547586910257
  0
ARC
  5
1c93e2a9
330
1F
  8
Layer
100
AcDbEntity
  6
CONTINUOUS
100
AcDbCircle
 10
-0.645225299538237
 20
0.5001405208152285
 30
0.0
 40
0.02780186615162245
100
AcDbArc
 50
68.84359186406148
 51
123.98441098096087
  0
ARC
  5
ab95aea3
330
1F
  8
Layer
100
AcDbEntity
  6
CONTINUOUS
100
AcDbCircle
 10
-0.650096790891957
 20
0.48755266870562974
 30
0.0
 40
0.04129947515257118
100
AcDbArc
 50
50.08176774258882
 51
68.84359186409525
  0
ARC
  5
8abb8aff
330
1F
  8
Layer
100
AcDbEntity
  6
CONTINUOUS
100
AcDbCircle
 10
-0.7171585843799289
 20
0.4073995080802588
 30
0.0
 40
0.1458069548086221
100
AcDbArc
 50
40.12857664826789
 51
50.0817677425659
  0
ARC
  5
0a1111a4
330
1F
  8
Layer
100
AcDbEntity
  6
CONTINUOUS
100
AcDbCircle
 10
-0.8700327878827521
 20
0.2785371070864153
 30
0.0
 40
0.34574704705257575
100
AcDbArc
 50
34.1012940429971
 51
40.128576648273786
  0
ARC
  5
16b22773
330
1F
  8
Layer
100
AcDbEntity
  6
CONTINUOUS
100
AcDbCircle
 10
-0.4811378008136613
 20
0.5418516177339561
 30
0.0
 40
0.12390584869599922
100
AcDbArc
 50
-145.898705957018
 51
-136.83698666003087
  0
ARC
  5
2e955010
330
1F
  8
Layer
100
AcDbEntity
  6
CONTINUOUS
100
AcDbCircle
 10
-0.5470564948276837
 20
0.480029873283913
 30
0.0
 40
0.03353327372238943
100
AcDbArc
 50
-136.83698666000888
 51
-120.33726250606219
  0
ARC
  5
2a76fe7d
330
1F
  8
Layer
100
AcDbEntity
  6
CONTINUOUS
100
AcDbCircle
 10
-0.5612689780246387
 20
0.45574439482282014
 30
0.0
 40
0.005394703348116875
100
AcDbArc
 50
-120.33726250607641
 51
-46.82557838370974
  0
ARC
  5
1696c3da
330
1F
  8
Layer
100
AcDbEntity
  6
CONTINUOUS
100
AcDbCircle
 10
-0.5668619050496972
 20
0.46170558793964234
 30
0.0
 40
0.013568848935496551
100
AcDbArc
 50
-46.825578383708994
 51
-16.091049672374456
  0
ARC
  5
9dfe9982
330
1F
  8
Layer
100
AcDbEntity
  6
CONTINUOUS
100
AcDbCircle
 10
-0.6341696957669911
 20
0.48112159370321383
 30
0.0
 40
0.08362111493063691
100
AcDbArc
 50
-16.0910496723256
 51
2.774979327412136
  0
ARC
  5
e4144e53
330
1F
  8
Layer
100
AcDbEntity
  6
CONTINUOUS
100
AcDbCircle
 10
-0.6555782205339968
 20
0.48008391327966415
 30
0.0
 40
0.10505477335286968
100
AcDbArc
 50
2.774979327374865
 51
22.872098976233037
  0
ARC
  5
58531476
330
1F
  8
Layer
100
AcDbEntity
  6
CONTINUOUS
100
AcDbCircle
 10
-0.74526567707633
 20
0.4422499055206208
 30
0.0
 40
0.2023956794722619
100
AcDbArc
 50
22.872098976246008
 51
41.59050732444137
  0
ARC
  5
a731437e
330
1F
  8
Layer
100
AcDbEntity
  6
CONTINUOUS
100
AcDbCircle
 10
-0.7843670022619369
 20
0.40754570762563636
 30
0.0
 40
0.2546766031711101
100
AcDbArc
 50
41.59050732444206
 51
54.40444885899204
  0
ARC
  5
37a15584
330
1F
  8
Layer
100
AcDbEntity
  6
CONTINUOUS
100
AcDbCircle
 10
-0.7372236586664451
 20
0.4734056366787771
 30
0.0
 40
0.17368262129438528
100
AcDbArc
 50
54.404448858979855
 51
69.93633483030382
  0
ARC
  5
dcefb06e
330
1F
  8
Layer
100
AcDbEntity
  6
CONTINUOUS
100
AcDbCircle
 10
-0.7946997184041482
 20
0.3160357615057827
 30
0.0
 40
0.3412200053462305
100
AcDbArc
 50
69.93633483031753
 51
78.06147331694106
  0
ARC
  5
e8c13ea7
330
1F
  8
Layer
100
AcDbEntity
  6
CONTINUOUS
100
AcDbCircle
 10
-1.026508101366523
 20
-0.7803196706438438
 30
0.0
 40
1.4618137586822122
100
AcDbArc
 50
78.06147331693636
 51
80.53754560506411
  0
ARC
  5
eb67d01c
330
1F
  8
Layer
100
AcDbEntity
  6
CONTINUOUS
100
AcDbCircle
 10
0.6721806408877826
 20
9.411667780438485
 30
0.0
 40
8.870763443839973
100
AcDbArc
 50
-99.99528431493296
 51
-99.46245439492907
  0
ARC
  5
15eb3133
330
1F
  8
Layer
100
AcDbEntity
  6
CONTINUOUS
100
AcDbCircle
 10
-0.745718324190749
 20
1.366491207642682
 30
0.0
 40
0.7015955815278487
100
AcDbArc
 50
-106.75928316970491
 51
-99.99528431493682
  0
ARC
  5
a19331fa
330
1F
  8
Layer
100
AcDbEntity
  6
CONTINUOUS
100
AcDbCircle
 10
-0.7957165710780627
 20
1.2004627018362668
 30
0.0
 40
0.5282021288483558
100
AcDbArc
 50
-129.0267344430095
 51
-106.7592831697026
  0
ARC
  5
3ae15e4c
330
1F
  8
Layer
100
AcDbEntity
  6
CONTINUOUS
100
AcDbCircle
 10
-0.8703491560765251
 20
1.108387013459987
 30
0.0
 40
0.4096780589995757
100
AcDbArc
 50
-143.15781442623293
 51
-129.02673444300945
  0
ARC
  5
2f439117
330
1F
  8
Layer
100
AcDbEntity
  6
CONTINUOUS
100
AcDbCircle
 10
-0.9136623672147988
 20
1.075934826312006
 30
0.0
 40
0.3555561714697032
100
AcDbArc
 50
-160.75663612905024
 51
-143.1578144262296
  0
ARC
  5
ff9aaed8
330
1F
  8
Layer
100
AcDbEntity
  6
CONTINUOUS
100
AcDbCircle
 10
-0.5913046315159542
 20
1.1884652994419693
 30
0.0
 40
0.6969908169697437
100
AcDbArc
 50
-177.00373011271498
 51
-160.75663612905268
  0
ARC
  5
d8b1e426
330
1F
  8
Layer
100
AcDbEntity
  6
CONTINUOUS
100
AcDbCircle
 10
-0.6739669431645876
 20
1.1841385475641606
 30
0.0
 40
0.6142153462739649
100
AcDbArc
 50
170.19157705379325
 51
-177.00373011271358
  0
ARC
  5
009d5ab0
330
1F
  8
Layer
100
AcDbEntity
  6
CONTINUOUS
100
AcDbCircle
 10
-0.8861407140573352
 20
1.2208194441734057
 30
0.0
 40
0.39889419721771013
100
AcDbArc
 50
158.08837531428387
 51
170.191577053794
  0
ARC
  5
9574a3db
330
1F
  8
Layer
100
AcDbEntity
  6
CONTINUOUS
100
AcDbCircle
 10
-0.942415966793787
 20
1.243455214549718
 30
0.0
 40
0.3382371104835062
100
AcDbArc
 50
130.68295406018072
 51
158.08837531428105
  0
ARC
  5
b1c6c5b5
330
1F
  8
Layer
100
AcDbEntity
  6
CONTINUOUS
100
AcDbCircle
 10
-0.9372755926626148
 20
1.2374753806497005
 30
0.0
 40
0.3461226580028752
100
AcDbArc
 50
116.14810506226281
 51
130.68295406018498
  0
ARC
  5
a45c47eb
330
1F
  8
Layer
100
AcDbEntity
  6
CONTINUOUS
100
AcDbCircle
 10
-0.9312598063091972
 20
1.225221684329909
 30
0.0
 40
0.3597734000686983
100
AcDbArc
 50
110.00597456076511
 51
116.14810506225456
  0
ARC
  5
b45b4dd1
330
1F
  8
Layer
100
AcDbEntity
  6
CONTINUOUS
100
AcDbCircle
 10
-1.2930915140878847
 20
2.2190236812292787
 30
0.0
 40
0.6978487412441696
100
AcDbArc
 50
-69.99402543921542
 51
-66.82858569070832
  0
ARC
  5
d6fe5312
330
1F
  8
Layer
100
AcDbEntity
  6
CONTINUOUS
100
AcDbCircle
 10
-1.1144934761040535
 20
1.8017484018787866
 30
0.0
 40
0.24395897717286397
100
AcDbArc
 50
-66.82858569070203
 51
-59.82370616923777
  0
ARC
  5
2da5c61e
330
1F
  8
Layer
100
AcDbEntity
  6
CONTINUOUS
100
AcDbCircle
 10
-1.0034320771962728
 20
1.6107440771156631
 30
0.0
 40
0.02301263435278022
100
AcDbArc
 50
-59.823706169253846
 51
-36.8774603662433
  0
ARC
  5
990fea68
330
1F
  8
Layer
100
AcDbEntity
  6
CONTINUOUS
100
AcDbCircle
 10
-0.9903872599161894
 20
1.6009577735103915
 30
0.0
 40
0.0067049982234906585
100
AcDbArc
 50
-36.87746036629444
 51
0.6436439193384567
  0
ARC
  5
3eb93423
330
1F
  8
Layer
100
AcDbEntity
  6
CONTINUOUS
100
AcDbCircle
 10
-0.9882341901254776
 20
1.600981961480041
 30
0.0
 40
0.004551792571085089
100
AcDbArc
 50
0.6436439194218947
 51
46.59493467726951
  0
ARC
  5
f7762bb6
330
1F
  8
Layer
100
AcDbEntity
  6
CONTINUOUS
100
AcDbCircle
 10
-0.9941930767968634
 20
1.5946817312985355
 30
0.0
 40
0.013223656886350072
100
AcDbArc
 50
46.594934677165554
 51
75.72082638414285
  0
ARC
  5
5d37d769
330
1F
  8
Layer
100
AcDbEntity
  6
CONTINUOUS
100
AcDbCircle
 10
-1.025815296094426
 20
1.4704341482480383
 30
0.0
 40
0.14143218486789058
100
AcDbArc
 50
75.72082638413549
 51
84.53990997367453
  0
ARC
  5
13b20891
330
1F
  8
Layer
100
AcDbEntity
  6
CONTINUOUS
100
AcDbCircle
 10
-1.041994521562244
 20
1.3011707361672902
 30
0.0
 40
0.3114670930660475
100
AcDbArc
 50
84.53990997369027
 51
88.91520704124281
  0
ARC
  5
05737177
330
1F
  8
Layer
100
AcDbEntity
  6
CONTINUOUS
100
AcDbCircle
 10
-1.054126417988801
 20
0.660473912235138
 30
0.0
 40
0.9522787682933711
100
AcDbArc
 50
88.9152070412317
 51
91.41705293707396
  0
ENDSEC
  0
SECTION
  2
OBJECTS
  0
DICTIONARY
  5
C
330
0
100
AcDbDictionary
  3
ACAD_GROUP
350
D
  3
ACAD_LAYOUT
350
1A
  3
ACAD_MLINESTYLE
350
17
  3
ACAD_PLOTSETTINGS
350
19
1001
ACAD
1000
TREAT_AS_HARD
1070
     0
  0
DICTIONARY
  5
D
102
{ACAD_REACTORS
330
C
102
}
330
C
100
AcDbDictionary
1001
ACAD
1000
TREAT_AS_HARD
1070
     0
  0
DICTIONARY
  5
1A
102
{ACAD_REACTORS
330
C
102
}
330
C
100
AcDbDictionary
1001
ACAD
1000
TREAT_AS_HARD
1070
     0
  0
DICTIONARY
  5
17
102
{ACAD_REACTORS
330
C
102
}
330
C
100
AcDbDictionary
  3
STANDARD
350
18
1001
ACAD
1000
TREAT_AS_HARD
1070
     0
  0
DICTIONARY
  5
19
102
{ACAD_REACTORS
330
C
102
}
330
C
100
AcDbDictionary
1001
ACAD
1000
TREAT_AS_HARD
1070
     0
  0
MLINESTYLE
  5
18
102
{ACAD_REACTORS
330
17
102
}
330
17
100
AcDbMlineStyle
  2
Standard
 70
     0
  3

 62
   256
 51
90.0
 52
90.0
 71
     2
 49
0.5
 62
   256
  6
BYLAYER
 49
-0.5
 62
   256
  6
BYLAYER
  0
ENDSEC
  0
EOF
