  0
SECTION
  2
HEADER
  9
$ACADVER
  1
AC1009
  9
$DWGCODEPAGE
  3
ansi_1252
  9
$INSBASE
 10
0
 20
0
 30
0
  9
$EXTMIN
 10
-1000
 20
-1000
 30
0
  9
$EXTMAX
 10
1000
 20
1000
 30
0
  9
$LIMMIN
 10
-103.73186
 20
-20.1418
  9
$LIMMAX
 10
57.24126
 20
120.8508
  9
$ORTHOMODE
 70
0
  9
$REGENMODE
 70
1
  9
$FILLMODE
 70
1
  9
$QTEXTMODE
 70
0
  9
$MIRRTEXT
 70
1
  9
$LTSCALE
 40
1
  9
$ATTMODE
 70
1
  9
$TEXTSIZE
 40
0.2
  9
$TRACEWID
 40
0.05
  9
$TEXTSTYLE
  7
Standard
  9
$CLAYER
  8
Outline
  9
$CELTYPE
  6
Continuous
  9
$CECOLOR
 62
256
  9
$DIMSCALE
 40
1
  9
$DIMASZ
 40
0.18
  9
$DIMEXO
 40
0.0625
  9
$DIMDLI
 40
0.38
  9
$DIMRND
 40
0
  9
$DIMDLE
 40
0
  9
$DIMEXE
 40
0.18
  9
$DIMTP
 40
0
  9
$DIMTM
 40
0
  9
$DIMTXT
 40
0.18
  9
$DIMCEN
 40
0.09
  9
$DIMTSZ
 40
0
  9
$DIMTOL
 70
0
  9
$DIMLIM
 70
0
  9
$DIMTIH
 70
1
  9
$DIMTOH
 70
1
  9
$DIMSE1
 70
0
  9
$DIMSE2
 70
0
  9
$DIMTAD
 70
0
  9
$DIMZIN
 70
0
  9
$DIMBLK
  1

  9
$DIMASO
 70
1
  9
$DIMSHO
 70
1
  9
$DIMPOST
  1

  9
$DIMAPOST
  1

  9
$DIMALT
 70
0
  9
$DIMALTD
 70
2
  9
$DIMALTF
 40
1
  9
$DIMLFAC
 40
1
  9
$DIMTOFL
 70
0
  9
$DIMTVP
 40
0
  9
$DIMTIX
 70
0
  9
$DIMSOXD
 70
0
  9
$DIMSAH
 70
0
  9
$DIMBLK1
  1

  9
$DIMBLK2
  1

  9
$MEASUREMENT
 70
0
  9
$INSUNITS
 70
1
  9
$DIMSTYLE
  2
STANDARD
  9
$DIMCLRD
 70
0
  9
$DIMCLRE
 70
0
  9
$DIMCLRT
 70
0
  9
$DIMTFAC
 40
1
  9
$DIMGAP
 40
0.09
  9
$LUNITS
 70
     2
  9
$MEASUREMENT
 70
     0
  9
$LUPREC
 70
4
  9
$SKETCHINC
 40
0.1
  9
$FILLETRAD
 40
0
  9
$AUNITS
 70
0
  9
$AUPREC
 70
0
  9
$MENU
  1
.
  9
$ELEVATION
 40
0
  9
$PELEVATION
 40
0
  9
$THICKNESS
 40
0
  9
$LIMCHECK
 70
0
  9
$CHAMFERA
 40
0.5
  9
$CHAMFERB
 40
0.5
  9
$SKPOLY
 70
0
  9
$TDCREATE
 40
2456054
  9
$TDUPDATE
 40
2456054
  9
$TDINDWG
 40
0
  9
$TDUSRTIMER
 40
0
  9
$USRTIMER
 70
1
  9
$ANGBASE
 50
0
  9
$ANGDIR
 70
1
  9
$PDMODE
 70
0
  9
$PDSIZE
 40
0
  9
$PLINEWID
 40
0
  9
$SPLFRAME
 70
0
  9
$SPLINETYPE
 70
6
  9
$SPLINESEGS
 70
8
  9
$HANDLING
 70
0
  9
$HANDSEED
  5
60
  9
$SURFTAB1
 70
6
  9
$SURFTAB2
 70
6
  9
$SURFTYPE
 70
6
  9
$SURFU
 70
6
  9
$SURFV
 70
6
  9
$UCSORG
 10
0
 20
0
 30
0
  9
$UCSXDIR
 10
1
 20
0
 30
0
  9
$UCSYDIR
 10
0
 20
1
 30
0
  9
$PUCSORG
 10
0
 20
0
 30
0
  9
$PUCSXDIR
 10
1
 20
0
 30
0
  9
$PUCSYDIR
 10
0
 20
1
 30
0
  9
$USERI1
 70
0
  9
$USERI2
 70
0
  9
$USERI3
 70
0
  9
$USERI4
 70
0
  9
$USERI5
 70
0
  9
$USERR1
 40
0
  9
$USERR2
 40
0
  9
$USERR3
 40
0
  9
$USERR4
 40
0
  9
$USERR5
 40
0
  9
$WORLDVIEW
 70
1
  9
$SHADEDGE
 70
3
  9
$SHADEDIF
 70
70
  9
$TILEMODE
 70
1
  9
$MAXACTVP
 70
48
  9
$PINSBASE
 10
0
 20
0
 30
0
  9
$PLIMCHECK
 70
0
  9
$PEXTMIN
 10
1E+20
 20
1E+20
 30
1E+20
  9
$PEXTMAX
 10
-1E+20
 20
-1E+20
 30
-1E+20
  9
$PLIMMAX
 10
0
 20
0
  9
$PLIMMIN
 10
0
 20
0
  9
$UNITMODE
 70
0
  9
$VISRETAIN
 70
1
  9
$PLINEGEN
 70
1
  9
$PSLTSCALE
 70
1
  9
$TREEDEPTH
 70
3020
  0
ENDSEC
  0
SECTION
  2
TABLES
  0
TABLE
  2
LTYPE
 70
7
  0
LTYPE
  2
Continuous
  3
Solid line
 70
64
 72
65
 73
0
 40
0
  0
LTYPE
  2
ByBlock
  3

 70
64
 72
65
 73
0
 40
0
  0
LTYPE
  2
ByLayer
  3

 70
64
 72
65
 73
0
 40
0
  0
LTYPE
  2
OutlineType
  3

 70
64
 72
65
 73
0
 40
0
  0
LTYPE
  2
BendingLineType
  3

 70
64
 72
65
 73
2
 40
7
 49
5
 49
-2
  0
LTYPE
  2
BendEdgeLineType
  3

 70
64
 72
65
 73
2
 40
3
 49
1
 49
-2
  0
LTYPE
  2
IllegalLineType
  3

 70
64
 72
65
 73
4
 40
6
 49
2
 49
-2
 49
0
 49
-2
  0
ENDTAB
  0
TABLE
  2
LAYER
 70
3
  0
LAYER
 70
0
  2
Outline
 62
5
  6
Continuous
  0
LAYER
 70
0
  2
BendingLines
 62
3
  6
Continuous
  0
LAYER
 70
64
  2
0
 62
7
  6
Continuous
  0
ENDTAB
  0
TABLE
  2
STYLE
 70
1
  0
STYLE
  2
Standard
 70
64
 40
0
 41
1
 50
0
 71
0
 42
0.2
  3
txt.shx
  0
ENDTAB
  0
TABLE
  2
APPID
 70
4
  0
APPID
  2
ACAD
 70
64
  0
APPID
  2
ACAD_MLEADERVER
 70
64
  0
APPID
  2
POS3000_V3_PRODUCT
 70
64
  0
APPID
  2
POS3000_V3_BENDINGLINE
 70
64
  0
ENDTAB
  0
TABLE
  2
DIMSTYLE
 70
1
  0
DIMSTYLE
  2
Standard
 70
64
  3

  4

  5

  6

  7

 40
1
 41
0.18
 42
0.0625
 43
0.38
 44
0.18
 45
0
 46
0
 47
0
 48
0
140
0.18
141
0.09
142
0
143
1
144
1
145
0
146
1
147
0.09
 71
0
 72
0
 73
1
 74
1
 75
0
 76
0
 77
0
 78
0
170
0
171
2
172
0
173
0
174
0
175
0
176
0
177
0
178
0
  0
ENDTAB
  0
ENDSEC
  0
SECTION
  2
BLOCKS
  0
BLOCK
  8
Outline
  2
*Model_Space
 70
64
 10
0
 20
0
 30
0
  3
*Model_Space
  0
ENDBLK
  8
0
  0
BLOCK
  8
Outline
 67
1
  2
*Paper_Space
 70
64
 10
0
 20
0
 30
0
  3
*Paper_Space
  0
ENDBLK
  8
0
  0
ENDSEC
  0
SECTION
  2
ENTITIES
  0
CIRCLE
  5
5f876638
330
1F
  8
Layer
  6
Continuous
100
AcDbCircle
 10
0.6299220000000001
 20
-0.629921
 30
0.0
 40
0.0875
  0
CIRCLE
  5
3caf1031
330
1F
  8
Layer
  6
Continuous
100
AcDbCircle
 10
-0.629921
 20
-0.629921
 30
0.0
 40
0.0875
  0
CIRCLE
  5
5d50ba55
330
1F
  8
Layer
  6
Continuous
100
AcDbCircle
 10
-0.629921
 20
0.6299220000000001
 30
0.0
 40
0.0875
  0
CIRCLE
  5
37f88fc0
330
1F
  8
Layer
  6
Continuous
100
AcDbCircle
 10
0.6299220000000001
 20
0.6299220000000001
 30
0.0
 40
0.0875
  0
LINE
  5
d94ca32d
330
1F
  8
Layer
  6
Continuous
100
AcDbLine
 10
0.0625
 20
0.482734
 30
0.0
 11
0.0625
 21
0.457027
 31
0.0
  0
ARC
  5
7e9b3f3b
330
1F
  8
Layer
  6
Continuous
100
AcDbCircle
 10
0.11250185727205689
 20
0.4570281877478217
 30
0.0
 40
0.050001857286163805
100
AcDbArc
 50
-179.99863899180932
 51
-103.83037505943376
  0
ARC
  5
4854365f
330
1F
  8
Layer
  6
Continuous
100
AcDbCircle
 10
-1.2833067493112083E-6
 20
-1.283306749255697E-6
 30
0.0
 40
0.4206709527061856
100
AcDbArc
 50
13.828791364593176
 51
76.17120863540683
  0
ARC
  5
a74c09df
330
1F
  8
Layer
  6
Continuous
100
AcDbCircle
 10
0.4570281877478217
 20
0.11250185727205686
 30
0.0
 40
0.050001857286163805
100
AcDbArc
 50
-166.16962494056628
 51
-90.0013610081907
  0
LINE
  5
b33fb57e
330
1F
  8
Layer
  6
Continuous
100
AcDbLine
 10
0.457027
 20
0.0625
 30
0.0
 11
0.482734
 21
0.0625
 31
0.0
  0
ARC
  5
4450ad16
330
1F
  8
Layer
  6
Continuous
100
AcDbCircle
 10
0.482734495268489
 20
0.11249944492731512
 30
0.0
 40
0.04999944492976807
100
AcDbArc
 50
-90.0013610081907
 51
13.118961380184315
  0
ARC
  5
da4eda25
330
1F
  8
Layer
  6
Continuous
100
AcDbCircle
 10
-2.8355208897545836E-7
 20
-2.8355208897545836E-7
 30
0.0
 40
0.5456697542978585
100
AcDbArc
 50
13.118469441866132
 51
76.88153055813387
  0
ARC
  5
bcac774b
330
1F
  8
Layer
  6
Continuous
100
AcDbCircle
 10
0.11249971041111312
 20
0.48273416080088366
 30
0.0
 40
0.04999971041137174
100
AcDbArc
 50
76.88142189669244
 51
-179.99863899180932
  0
LINE
  5
9c6d4fee
330
1F
  8
Layer
  6
Continuous
100
AcDbLine
 10
0.0625
 20
0.6865129999999999
 30
0.0
 11
0.0625
 21
0.661167
 31
0.0
  0
ARC
  5
d5619ba8
330
1F
  8
Layer
  6
Continuous
100
AcDbCircle
 10
0.11250029822753202
 20
0.6611668152568831
 30
0.0
 40
0.050000298227873316
100
AcDbArc
 50
-179.99863899180932
 51
-99.65673230201283
  0
ARC
  5
fbe34984
330
1F
  8
Layer
  6
Continuous
100
AcDbCircle
 10
2.39969215921898E-6
 20
2.39969215909408E-6
 30
0.0
 40
0.6206666545771069
100
AcDbArc
 50
9.656622743656316
 51
80.34337725634369
  0
ARC
  5
3c83111a
330
1F
  8
Layer
  6
Continuous
100
AcDbCircle
 10
0.6611668152568834
 20
0.11250029822753194
 30
0.0
 40
0.05000029822787331
100
AcDbArc
 50
-170.3432676979872
 51
-90.0013610081907
  0
LINE
  5
2c18641e
330
1F
  8
Layer
  6
Continuous
100
AcDbLine
 10
0.6611670000000001
 20
0.06249999999999989
 30
0.0
 11
0.686513
 21
0.06249999999999989
 31
0.0
  0
ARC
  5
9ba58ead
330
1F
  8
Layer
  6
Continuous
100
AcDbCircle
 10
0.6865134350024252
 20
0.11249977130651678
 30
0.0
 40
0.049999771308409165
100
AcDbArc
 50
-90.0013610081907
 51
9.307053793055797
  0
ARC
  5
5aa65802
330
1F
  8
Layer
  6
Continuous
100
AcDbCircle
 10
-1.203394835794236E-6
 20
-1.2033948358913804E-6
 30
0.0
 40
0.7456712584626347
100
AcDbArc
 50
9.306454671476306
 51
80.69354532852368
  0
ARC
  5
08673521
330
1F
  8
Layer
  6
Continuous
100
AcDbCircle
 10
0.11250096007791753
 20
0.6865120355663344
 30
0.0
 40
0.05000096008721863
100
AcDbArc
 50
80.69454982363736
 51
-179.99863899180932
  0
LINE
  5
b9472b00
330
1F
  8
Layer
  6
Continuous
100
AcDbLine
 10
-0.482733
 20
0.0625
 30
0.0
 11
-0.45702600000000004
 21
0.0625
 31
0.0
  0
ARC
  5
1a5515ae
330
1F
  8
Layer
  6
Continuous
100
AcDbCircle
 10
-0.45702718774782175
 20
0.11250185727205689
 30
0.0
 40
0.050001857286163805
100
AcDbArc
 50
-90.0013610081907
 51
-13.830375059433761
  0
ARC
  5
427aeeb9
330
1F
  8
Layer
  6
Continuous
100
AcDbCircle
 10
2.2833067492844528E-6
 20
-1.2833067492695749E-6
 30
0.0
 40
0.42067095270618565
100
AcDbArc
 50
103.82865911096961
 51
166.17117608026834
  0
ARC
  5
3e9516f6
330
1F
  8
Layer
  6
Continuous
100
AcDbCircle
 10
-0.11250085727205689
 20
0.4570281877478217
 30
0.0
 40
0.050001857286163805
100
AcDbArc
 50
-76.16962494056628
 51
-0.001361008190687792
  0
LINE
  5
32ae03a2
330
1F
  8
Layer
  6
Continuous
100
AcDbLine
 10
-0.06249900000000003
 20
0.457027
 30
0.0
 11
-0.06249900000000003
 21
0.482734
 31
0.0
  0
ARC
  5
77b0d62a
330
1F
  8
Layer
  6
Continuous
100
AcDbCircle
 10
-0.11249844492731514
 20
0.482734495268489
 30
0.0
 40
0.04999944492976807
100
AcDbArc
 50
-0.001361008190687792
 51
103.11896138018432
  0
ARC
  5
e96f71e6
330
1F
  8
Layer
  6
Continuous
100
AcDbCircle
 10
1.2835520890597252E-6
 20
-2.8355208908648066E-7
 30
0.0
 40
0.5456697542978586
100
AcDbArc
 50
103.11836718114738
 51
166.8815067265349
  0
ARC
  5
7ed053f6
330
1F
  8
Layer
  6
Continuous
100
AcDbCircle
 10
-0.4827331608008837
 20
0.11249971041111312
 30
0.0
 40
0.04999971041137174
100
AcDbArc
 50
166.88142189669244
 51
-90.0013610081907
  0
LINE
  5
c6ab5389
330
1F
  8
Layer
  6
Continuous
100
AcDbLine
 10
-0.686512
 20
0.0625
 30
0.0
 11
-0.661166
 21
0.0625
 31
0.0
  0
ARC
  5
c8bf9b4a
330
1F
  8
Layer
  6
Continuous
100
AcDbCircle
 10
-0.6611658152568832
 20
0.11250029822753202
 30
0.0
 40
0.050000298227873316
100
AcDbArc
 50
-90.0013610081907
 51
-9.656732302012816
  0
ARC
  5
1a11b51a
330
1F
  8
Layer
  6
Continuous
100
AcDbCircle
 10
-1.3996921591763467E-6
 20
2.3996921592467357E-6
 30
0.0
 40
0.6206666545771069
100
AcDbArc
 50
99.65653173876025
 51
170.343361771473
  0
ARC
  5
8eed6e2e
330
1F
  8
Layer
  6
Continuous
100
AcDbCircle
 10
-0.11249929822753202
 20
0.6611668152568834
 30
0.0
 40
0.05000029822787331
100
AcDbArc
 50
-80.3432676979872
 51
-0.001361008190687792
  0
LINE
  5
8c54f721
330
1F
  8
Layer
  6
Continuous
100
AcDbLine
 10
-0.06249899999999997
 20
0.6611670000000001
 30
0.0
 11
-0.06249899999999997
 21
0.686513
 31
0.0
  0
ARC
  5
0f7e81d9
330
1F
  8
Layer
  6
Continuous
100
AcDbCircle
 10
-0.11249877130651686
 20
0.6865134350024252
 30
0.0
 40
0.049999771308409165
100
AcDbArc
 50
-0.001361008190687792
 51
99.3070537930558
  0
ARC
  5
a507c6ea
330
1F
  8
Layer
  6
Continuous
100
AcDbCircle
 10
2.203394835920136E-6
 20
-1.203394835794236E-6
 30
0.0
 40
0.7456712584626347
100
AcDbArc
 50
99.30637884484294
 51
170.69353290265101
  0
ARC
  5
12d83ec8
330
1F
  8
Layer
  6
Continuous
100
AcDbCircle
 10
-0.6865110355663345
 20
0.11250096007791753
 30
0.0
 40
0.05000096008721863
100
AcDbArc
 50
170.69454982363737
 51
-90.0013610081907
  0
LINE
  5
f4e72054
330
1F
  8
Layer
  6
Continuous
100
AcDbLine
 10
-0.0625
 20
-0.482733
 30
0.0
 11
-0.0625
 21
-0.45702600000000004
 31
0.0
  0
ARC
  5
23fd14c0
330
1F
  8
Layer
  6
Continuous
100
AcDbCircle
 10
-0.11250185727205689
 20
-0.45702718774782175
 30
0.0
 40
0.050001857286163805
100
AcDbArc
 50
-0.001361008190687792
 51
76.16962494056625
  0
ARC
  5
b38d80ba
330
1F
  8
Layer
  6
Continuous
100
AcDbCircle
 10
1.2833067493112083E-6
 20
2.2833067492289416E-6
 30
0.0
 40
0.4206709527061856
100
AcDbArc
 50
-166.1713408890304
 51
-103.82882391973165
  0
ARC
  5
4fe953d1
330
1F
  8
Layer
  6
Continuous
100
AcDbCircle
 10
-0.4570281877478217
 20
-0.11250085727205689
 30
0.0
 40
0.050001857286163805
100
AcDbArc
 50
13.83037505943373
 51
89.99863899180932
  0
LINE
  5
b4231efc
330
1F
  8
Layer
  6
Continuous
100
AcDbLine
 10
-0.457027
 20
-0.06249900000000003
 30
0.0
 11
-0.482734
 21
-0.06249900000000003
 31
0.0
  0
ARC
  5
acff7b93
330
1F
  8
Layer
  6
Continuous
100
AcDbCircle
 10
-0.482734495268489
 20
-0.11249844492731514
 30
0.0
 40
0.04999944492976807
100
AcDbArc
 50
89.99863899180932
 51
-166.88103861981568
  0
ARC
  5
1992cad9
330
1F
  8
Layer
  6
Continuous
100
AcDbCircle
 10
2.8355208897545836E-7
 20
1.2835520889487029E-6
 30
0.0
 40
0.5456697542978585
100
AcDbArc
 50
-166.88163281885264
 51
-103.11849327346516
  0
ARC
  5
12542a39
330
1F
  8
Layer
  6
Continuous
100
AcDbCircle
 10
-0.11249971041111312
 20
-0.4827331608008837
 30
0.0
 40
0.04999971041137174
100
AcDbArc
 50
-103.11857810330758
 51
-0.001361008190687792
  0
LINE
  5
9cbf6011
330
1F
  8
Layer
  6
Continuous
100
AcDbLine
 10
-0.0625
 20
-0.686512
 30
0.0
 11
-0.0625
 21
-0.661166
 31
0.0
  0
ARC
  5
29e62ace
330
1F
  8
Layer
  6
Continuous
100
AcDbCircle
 10
-0.11250029822753202
 20
-0.6611658152568832
 30
0.0
 40
0.050000298227873316
100
AcDbArc
 50
-0.001361008190687792
 51
80.34326769798719
  0
ARC
  5
924535ff
330
1F
  8
Layer
  6
Continuous
100
AcDbCircle
 10
-2.39969215921898E-6
 20
-1.3996921591763467E-6
 30
0.0
 40
0.6206666545771069
100
AcDbArc
 50
-170.34346826123976
 51
-99.65663822852699
  0
ARC
  5
f22b2dbf
330
1F
  8
Layer
  6
Continuous
100
AcDbCircle
 10
-0.6611668152568834
 20
-0.11249929822753202
 30
0.0
 40
0.05000029822787331
100
AcDbArc
 50
9.656732302012811
 51
89.99863899180932
  0
LINE
  5
bdfa8939
330
1F
  8
Layer
  6
Continuous
100
AcDbLine
 10
-0.6611670000000001
 20
-0.06249899999999997
 30
0.0
 11
-0.686513
 21
-0.06249899999999997
 31
0.0
  0
ARC
  5
2f3ede20
330
1F
  8
Layer
  6
Continuous
100
AcDbCircle
 10
-0.6865134350024252
 20
-0.11249877130651686
 30
0.0
 40
0.049999771308409165
100
AcDbArc
 50
89.99863899180932
 51
-170.69294620694419
  0
ARC
  5
bfe76d8b
330
1F
  8
Layer
  6
Continuous
100
AcDbCircle
 10
1.203394835794236E-6
 20
2.2033948358091138E-6
 30
0.0
 40
0.7456712584626347
100
AcDbArc
 50
-170.69362115515708
 51
-99.30646709734899
  0
ARC
  5
f7aa2940
330
1F
  8
Layer
  6
Continuous
100
AcDbCircle
 10
-0.11250096007791753
 20
-0.6865110355663345
 30
0.0
 40
0.05000096008721863
100
AcDbArc
 50
-99.30545017636265
 51
-0.001361008190687792
  0
LINE
  5
e2678556
330
1F
  8
Layer
  6
Continuous
100
AcDbLine
 10
0.482734
 20
-0.0625
 30
0.0
 11
0.457027
 21
-0.0625
 31
0.0
  0
ARC
  5
c0c28fea
330
1F
  8
Layer
  6
Continuous
100
AcDbCircle
 10
0.4570281877478217
 20
-0.11250185727205689
 30
0.0
 40
0.050001857286163805
100
AcDbArc
 50
89.99863899180932
 51
166.16962494056625
  0
ARC
  5
ef14c82e
330
1F
  8
Layer
  6
Continuous
100
AcDbCircle
 10
-1.2833067493112083E-6
 20
1.2833067492695749E-6
 30
0.0
 40
0.42067095270618565
100
AcDbArc
 50
-76.17120863540683
 51
-13.828791364593176
  0
ARC
  5
8ba7282e
330
1F
  8
Layer
  6
Continuous
100
AcDbCircle
 10
0.11250185727205686
 20
-0.4570281877478217
 30
0.0
 40
0.050001857286163805
100
AcDbArc
 50
103.83037505943373
 51
-179.99863899180932
  0
LINE
  5
a0d6ebf2
330
1F
  8
Layer
  6
Continuous
100
AcDbLine
 10
0.0625
 20
-0.457027
 30
0.0
 11
0.0625
 21
-0.482734
 31
0.0
  0
ARC
  5
bab2bd42
330
1F
  8
Layer
  6
Continuous
100
AcDbCircle
 10
0.11249944492731512
 20
-0.482734495268489
 30
0.0
 40
0.04999944492976807
100
AcDbArc
 50
-179.99863899180932
 51
-76.8810386198157
  0
ARC
  5
05a05d14
330
1F
  8
Layer
  6
Continuous
100
AcDbCircle
 10
-2.8355208908648066E-7
 20
2.8355208908648066E-7
 30
0.0
 40
0.5456697542978586
100
AcDbArc
 50
-76.88153055813387
 51
-13.118469441866125
  0
ARC
  5
d8cb4672
330
1F
  8
Layer
  6
Continuous
100
AcDbCircle
 10
0.48273416080088366
 20
-0.11249971041111312
 30
0.0
 40
0.04999971041137174
100
AcDbArc
 50
-13.118578103307568
 51
89.99863899180932
  0
LINE
  5
9f3c7d4e
330
1F
  8
Layer
  6
Continuous
100
AcDbLine
 10
0.6865129999999999
 20
-0.0625
 30
0.0
 11
0.661167
 21
-0.0625
 31
0.0
  0
ARC
  5
4b2597e8
330
1F
  8
Layer
  6
Continuous
100
AcDbCircle
 10
0.6611668152568831
 20
-0.11250029822753202
 30
0.0
 40
0.050000298227873316
100
AcDbArc
 50
89.99863899180932
 51
170.3432676979872
  0
ARC
  5
a0c2c324
330
1F
  8
Layer
  6
Continuous
100
AcDbCircle
 10
2.39969215909408E-6
 20
-2.3996921592467357E-6
 30
0.0
 40
0.6206666545771069
100
AcDbArc
 50
-80.34337725634369
 51
-9.656622743656326
  0
ARC
  5
30f61e1d
330
1F
  8
Layer
  6
Continuous
100
AcDbCircle
 10
0.11250029822753194
 20
-0.6611668152568834
 30
0.0
 40
0.05000029822787331
100
AcDbArc
 50
99.65673230201283
 51
-179.99863899180932
  0
LINE
  5
3b1487a2
330
1F
  8
Layer
  6
Continuous
100
AcDbLine
 10
0.06249999999999989
 20
-0.6611670000000001
 30
0.0
 11
0.06249999999999989
 21
-0.686513
 31
0.0
  0
ARC
  5
56c9fdb5
330
1F
  8
Layer
  6
Continuous
100
AcDbCircle
 10
0.11249977130651678
 20
-0.6865134350024252
 30
0.0
 40
0.049999771308409165
100
AcDbArc
 50
-179.99863899180932
 51
-80.6929462069442
  0
ARC
  5
cc074c26
330
1F
  8
Layer
  6
Continuous
100
AcDbCircle
 10
-1.2033948360024027E-6
 20
1.203394835794236E-6
 30
0.0
 40
0.7456712584626347
100
AcDbArc
 50
-80.6935453285237
 51
-9.306454671476315
  0
ARC
  5
5eb1ba09
330
1F
  8
Layer
  6
Continuous
100
AcDbCircle
 10
0.6865120355663344
 20
-0.11250096007791753
 30
0.0
 40
0.05000096008721863
100
AcDbArc
 50
-9.305450176362644
 51
89.99863899180932
  0
ENDSEC
999
Created By CadLib version 2.0.33.7
999
CadLib website: www.woutware.com
  0
EOF
