  0
SECTION
  2
HEADER
  9
$ACADVER
  1
AC1012
  9
$DWGCODEPAGE
  3
ansi_1252
  9
$INSUNITS
  1

  9
$INSBASE
 10
0.0
 20
0.0
 30
0.0
  9
$EXTMIN
 10
-1000.0
 20
-1000.0
 30
0.0
  9
$EXTMAX
 10
1000.0
 20
1000.0
 30
0.0
  9
$LIMMIN
 10
0.0
 20
0.0
  9
$LIMMAX
 10
0.0
 20
0.0
  9
$ORTHOMODE
 70
     0
  9
$REGENMODE
 70
     1
  9
$FILLMODE
 70
     1
  9
$QTEXTMODE
 70
     0
  9
$MIRRTEXT
 70
     1
  9
$DRAGMODE
 70
     2
  9
$LTSCALE
 40
1.0
  9
$OSMODE
 70
    37
  9
$ATTMODE
 70
     1
  9
$TEXTSIZE
 40
0.1377952756
  9
$TRACEWID
 40
0.05
  9
$TEXTSTYLE
  7
STANDARD
  9
$CLAYER
  8
0
  9
$CELTYPE
  6
BYLAYER
  9
$CECOLOR
 62
   256
  9
$CELTSCALE
 40
1.0
  9
$DELOBJ
 70
     1
  9
$DISPSILH
 70
     0
  9
$DIMSCALE
 40
1.0
  9
$DIMASZ
 40
0.2362204724
  9
$DIMEXO
 40
0.0393700787
  9
$DIMDLI
 40
0.38
  9
$DIMRND
 40
0.0
  9
$DIMDLE
 40
0.0
  9
$DIMEXE
 40
0.0393700787
  9
$DIMTP
 40
0.0
  9
$DIMTM
 40
0.0
  9
$DIMTXT
 40
0.1377952756
  9
$DIMCEN
 40
0.09
  9
$DIMTSZ
 40
0.0
  9
$DIMTOL
 70
     0
  9
$DIMLIM
 70
     0
  9
$DIMTIH
 70
     1
  9
$DIMTOH
 70
     1
  9
$DIMSE1
 70
     0
  9
$DIMSE2
 70
     0
  9
$DIMTAD
 70
     0
  9
$DIMZIN
 70
     1
  9
$DIMBLK
  1

  9
$DIMASO
 70
     1
  9
$DIMSHO
 70
     1
  9
$DIMPOST
  1

  9
$DIMAPOST
  1

  9
$DIMALT
 70
     0
  9
$DIMALTD
 70
     2
  9
$DIMALTF
 40
25.4
  9
$DIMLFAC
 40
1.0
  9
$DIMTOFL
 70
     0
  9
$DIMTVP
 40
0.0
  9
$DIMTIX
 70
     0
  9
$DIMSOXD
 70
     0
  9
$DIMSAH
 70
     0
  9
$DIMBLK1
  1

  9
$DIMBLK2
  1

  9
$DIMSTYLE
  2
STANDARD
  9
$DIMCLRD
 70
     0
  9
$DIMCLRE
 70
     0
  9
$DIMCLRT
 70
     0
  9
$DIMTFAC
 40
1.0
  9
$DIMGAP
 40
0.06
  9
$DIMJUST
 70
     0
  9
$DIMSD1
 70
     0
  9
$DIMSD2
 70
     0
  9
$DIMTOLJ
 70
     1
  9
$DIMTZIN
 70
     1
  9
$DIMALTZ
 70
     0
  9
$DIMALTTZ
 70
     0
  9
$DIMFIT
 70
     3
  9
$DIMUPT
 70
     0
  9
$DIMUNIT
 70
     2
  9
$DIMDEC
 70
     4
  9
$DIMTDEC
 70
     4
  9
$DIMALTU
 70
     2
  9
$DIMALTTD
 70
     2
  9
$DIMTXSTY
  7
STANDARD
  9
$DIMAUNIT
 70
     0
  9
$LUNITS
 70
     2
  9
$LUPREC
 70
     4
  9
$SKETCHINC
 40
0.1
  9
$FILLETRAD
 40
0.5
  9
$AUNITS
 70
     0
  9
$AUPREC
 70
     0
  9
$MENU
  1
.
  9
$ELEVATION
 40
0.0
  9
$PELEVATION
 40
0.0
  9
$THICKNESS
 40
0.0
  9
$LIMCHECK
 70
     0
  9
$CHAMFERA
 40
0.5
  9
$CHAMFERB
 40
0.5
  9
$CHAMFERC
 40
1.0
  9
$CHAMFERD
 40
0.0
  9
$SKPOLY
 70
     0
  9
$TDCREATE
 40
2457059.4862175
  9
$TDUPDATE
 40
2457059.486217511
  9
$TDINDWG
 40
0.0000000116
  9
$TDUSRTIMER
 40
0.0000000116
  9
$USRTIMER
 70
     1
  9
$ANGBASE
 50
0.0
  9
$ANGDIR
 70
     0
  9
$PDMODE
 70
     0
  9
$PDSIZE
 40
-1.0
  9
$PLINEWID
 40
0.0
  9
$COORDS
 70
     1
  9
$SPLFRAME
 70
     0
  9
$SPLINETYPE
 70
     6
  9
$SPLINESEGS
 70
     8
  9
$ATTDIA
 70
     0
  9
$ATTREQ
 70
     1
  9
$HANDLING
 70
     1
  9
$HANDSEED
  5
48
  9
$SURFTAB1
 70
     6
  9
$SURFTAB2
 70
     6
  9
$SURFTYPE
 70
     6
  9
$SURFU
 70
     6
  9
$SURFV
 70
     6
  9
$UCSNAME
  2

  9
$UCSORG
 10
0.0
 20
0.0
 30
0.0
  9
$UCSXDIR
 10
1.0
 20
0.0
 30
0.0
  9
$UCSYDIR
 10
0.0
 20
1.0
 30
0.0
  9
$PUCSNAME
  2

  9
$PUCSORG
 10
0.0
 20
0.0
 30
0.0
  9
$PUCSXDIR
 10
1.0
 20
0.0
 30
0.0
  9
$PUCSYDIR
 10
0.0
 20
1.0
 30
0.0
  9
$USERI1
 70
     0
  9
$USERI2
 70
     0
  9
$USERI3
 70
     0
  9
$USERI4
 70
     0
  9
$USERI5
 70
     0
  9
$USERR1
 40
0.0
  9
$USERR2
 40
0.0
  9
$USERR3
 40
0.0
  9
$USERR4
 40
0.0
  9
$USERR5
 40
0.0
  9
$WORLDVIEW
 70
     1
  9
$SHADEDGE
 70
     3
  9
$SHADEDIF
 70
    70
  9
$TILEMODE
 70
     1
  9
$MAXACTVP
 70
    64
  9
$PINSBASE
 10
0.0
 20
0.0
 30
0.0
  9
$PLIMCHECK
 70
     0
  9
$PEXTMIN
 10
1.0000000000E+20
 20
1.0000000000E+20
 30
1.0000000000E+20
  9
$PEXTMAX
 10
-1.0000000000E+20
 20
-1.0000000000E+20
 30
-1.0000000000E+20
  9
$PLIMMIN
 10
0.0
 20
0.0
  9
$PLIMMAX
 10
12.0
 20
9.0
  9
$UNITMODE
 70
     0
  9
$VISRETAIN
 70
     1
  9
$PLINEGEN
 70
     0
  9
$PSLTSCALE
 70
     1
  9
$TREEDEPTH
 70
  3020
  9
$PICKSTYLE
 70
     1
  9
$CMLSTYLE
  2
STANDARD
  9
$CMLJUST
 70
     0
  9
$CMLSCALE
 40
1.0
  9
$SAVEIMAGES
 70
     1
  0
ENDSEC
  0
SECTION
  2
CLASSES
  0
CLASS
  1
ACDBDICTIONARYWDFLT
  2
AcDbDictionaryWithDefault
  3
ObjectDBX Classes
 90
    32768
280
     0
281
     0
  0
CLASS
  1
XRECORD
  2
AcDbXrecord
  3
AutoCAD 2000
 90
    32768
280
     0
281
     0
  0
CLASS
  1
LWPOLYLINE
  2
AcDbPolyline
  3
AutoCAD 2000
 90
    32768
280
     0
281
     1
  0
CLASS
  1
HATCH
  2
AcDbHatch
  3
AutoCAD 2000
 90
    32768
280
     0
281
     1
  0
CLASS
  1
ACDBPLACEHOLDER
  2
AcDbPlaceHolder
  3
ObjectDBX Classes
 90
        0
280
     0
281
     0
  0
CLASS
  1
LAYOUT
  2
AcDbLayout
  3
ObjectDBX Classes
 90
        0
280
     0
281
     0
  0
ENDSEC
  0
SECTION
  2
TABLES
  0
TABLE
  2
VPORT
  5
8
330
0
100
AcDbSymbolTable
 70
     1
  0
VPORT
  5
29
330
8
100
AcDbSymbolTableRecord
100
AcDbViewportTableRecord
  2
*ACTIVE
 70
     0
 10
0.0
 20
0.0
 11
1.0
 21
1.0
 12
8.2677165354
 22
5.8464566929
 13
0.0
 23
0.0
 14
0.5
 24
0.5
 15
0.5
 25
0.5
 16
0.0
 26
0.0
 36
1.0
 17
0.0
 27
0.0
 37
0.0
 40
11.6929133858
 41
1.4141414141
 42
50.0
 43
0.0
 44
0.0
 50
0.0
 51
0.0
 71
     0
 72
  2000
 73
     1
 74
     3
 75
     0
 76
     0
 77
     0
 78
     0
  0
ENDTAB
  0
TABLE
  2
LTYPE
  5
5
330
0
100
AcDbSymbolTable
 70
     6
  0
LTYPE
  5
14
330
5
100
AcDbSymbolTableRecord
100
AcDbLinetypeTableRecord
  2
BYBLOCK
 70
     0
  3

 72
    65
 73
     0
 40
0.0
  0
LTYPE
  5
15
330
5
100
AcDbSymbolTableRecord
100
AcDbLinetypeTableRecord
  2
BYLAYER
 70
     0
  3

 72
    65
 73
     0
 40
0.0
  0
LTYPE
  5
16
330
5
100
AcDbSymbolTableRecord
100
AcDbLinetypeTableRecord
  2
CONTINUOUS
 70
     0
  3
Solid line
 72
    65
 73
     0
 40
0.0
  0
LTYPE
  5
2A
330
5
100
AcDbSymbolTableRecord
100
AcDbLinetypeTableRecord
  2
HIDDEN
 70
     0
  3
Hidden __ __ __ __ __ __ __ __ __ __ __ __ __ __
 72
    65
 73
     2
 40
0.075
 49
0.05
 74
     0
 49
-0.025
 74
     0
  0
LTYPE
  5
2B
330
5
100
AcDbSymbolTableRecord
100
AcDbLinetypeTableRecord
  2
PHANTOM
 70
     0
  3
Phantom ______  __  __  ______  __  __  ______
 72
    65
 73
     6
 40
0.5
 49
0.25
 74
     0
 49
-0.05
 74
     0
 49
0.05
 74
     0
 49
-0.05
 74
     0
 49
0.05
 74
     0
 49
-0.05
 74
     0
  0
LTYPE
  5
2C
330
5
100
AcDbSymbolTableRecord
100
AcDbLinetypeTableRecord
  2
CENTER
 70
     0
  3
Center ____ _ ____ _ ____ _ ____ _ ____ _ ____
 72
    65
 73
     4
 40
0.4
 49
0.25
 74
     0
 49
-0.05
 74
     0
 49
0.05
 74
     0
 49
-0.05
 74
     0
  0
LTYPE
  5
2D
330
5
100
AcDbSymbolTableRecord
100
AcDbLinetypeTableRecord
  2
CENTERX2
 70
     0
  3
Center (2x) ________  __  ________  __  _____
 72
    65
 73
     4
 40
0.8
 49
0.5
 74
     0
 49
-0.1
 74
     0
 49
0.1
 74
     0
 49
-0.1
 74
     0
  0
LTYPE
  5
2E
330
5
100
AcDbSymbolTableRecord
100
AcDbLinetypeTableRecord
  2
DOT2
 70
     0
  3
Dot (.5x) ........................................
 72
    65
 73
     2
 40
0.025
 49
0.0
 74
     0
 49
-0.025
 74
     0
  0
ENDTAB
  0
TABLE
  2
LAYER
  5
2
330
0
100
AcDbSymbolTable
 70
     2
  0
LAYER
  5
10
330
2
100
AcDbSymbolTableRecord
100
AcDbLayerTableRecord
  2
0
 70
     0
 62
     7
  6
CONTINUOUS
  0
LAYER
  5
2F
330
2
100
AcDbSymbolTableRecord
100
AcDbLayerTableRecord
  2
GRAIN DIRECTION
 70
     0
 62
   2
  6
CONTINUOUS
  0
ENDTAB
  0
TABLE
  2
STYLE
  5
3
330
0
100
AcDbSymbolTable
 70
     1
  0
STYLE
  5
11
330
3
100
AcDbSymbolTableRecord
100
AcDbTextStyleTableRecord
  2
STANDARD
 70
     0
 40
0.0
 41
1.0
 50
0.0
 71
     0
 42
0.2
  3
txt
  4

  0
ENDTAB
  0
TABLE
  2
VIEW
  5
6
330
0
100
AcDbSymbolTable
 70
     0
  0
ENDTAB
  0
TABLE
  2
UCS
  5
7
330
0
100
AcDbSymbolTable
 70
     0
  0
ENDTAB
  0
TABLE
  2
APPID
  5
9
330
0
100
AcDbSymbolTable
 70
     1
  0
APPID
  5
12
330
9
100
AcDbSymbolTableRecord
100
AcDbRegAppTableRecord
  2
ACAD
 70
     0
  0
ENDTAB
  0
TABLE
  2
DIMSTYLE
  5
A
330
0
100
AcDbSymbolTable
 70
     1
  0
DIMSTYLE
105
27
330
A
100
AcDbSymbolTableRecord
100
AcDbDimStyleTableRecord
  2
STANDARD
 70
     0
  3

  4

  5

  6

  7

 40
1.0
 41
0.18
 42
0.0625
 43
0.38
 44
0.18
 45
0.0
 46
0.0
 47
0.0
 48
0.0
140
0.18
141
0.09
142
0.0
143
25.4
144
1.0
145
0.0
146
1.0
147
0.09
 71
     0
 72
     0
 73
     1
 74
     1
 75
     0
 76
     0
 77
     0
 78
     0
170
     0
171
     2
172
     0
173
     0
174
     0
175
     0
176
     0
177
     0
178
     0
270
     2
271
     4
272
     4
273
     2
274
     2
340
11
275
     0
280
     0
281
     0
282
     0
283
     1
284
     0
285
     0
286
     0
287
     3
288
     0
  0
ENDTAB
  0
TABLE
  2
BLOCK_RECORD
  5
1
330
0
100
AcDbSymbolTable
 70
     1
  0
BLOCK_RECORD
  5
1F
330
1
100
AcDbSymbolTableRecord
100
AcDbBlockTableRecord
  2
*MODEL_SPACE
  0
BLOCK_RECORD
  5
1B
330
1
100
AcDbSymbolTableRecord
100
AcDbBlockTableRecord
  2
*PAPER_SPACE
  0
ENDTAB
  0
ENDSEC
  0
SECTION
  2
BLOCKS
  0
BLOCK
  5
20
330
1F
100
AcDbEntity
  8
0
100
AcDbBlockBegin
  2
*MODEL_SPACE
 70
     0
 71
     0
 10
0.0
 20
0.0
 30
0.0
  3
*MODEL_SPACE
  1

  0
ENDBLK
  5
21
330
1F
100
AcDbEntity
  8
0
100
AcDbBlockEnd
  0
BLOCK
  5
1C
330
1B
100
AcDbEntity
 67
     1
  8
0
100
AcDbBlockBegin
  2
*PAPER_SPACE
 70
     0
 71
     0
 10
0.0
 20
0.0
 30
0.0
  3
*PAPER_SPACE
  1

  0
ENDBLK
  5
1D
330
1B
100
AcDbEntity
 67
     1
  8
0
100
AcDbBlockEnd
  0
ENDSEC
  0
SECTION
  2
ENTITIES
  0
ARC
  5
9b670b84
330
1F
  8
Layer
100
AcDbEntity
  6
CONTINUOUS
100
AcDbCircle
 10
2.8424763406999976
 20
2.4676813879999977
 30
0.0
 40
1.0149999999999972
100
AcDbArc
 50
-170.55841347350005
 51
-99.44158652649995
  0
ARC
  5
753c0992
330
1F
  8
Layer
100
AcDbEntity
  6
CONTINUOUS
100
AcDbCircle
 10
2.6862263406995
 20
1.528084566219591
 30
0.0
 40
0.06249999999999937
100
AcDbArc
 50
-99.44158652650013
 51
4.07110999227333E-13
  0
LINE
  5
e21e419e
330
1F
  8
Layer
100
AcDbEntity
  6
CONTINUOUS
100
AcDbLine
 10
2.7487263406994997
 20
1.5280845662195914
 30
0.0
 11
2.7487263406994997
 21
1.5915045009195914
 31
0.0
  0
ARC
  5
4d04383c
330
1F
  8
Layer
100
AcDbEntity
  6
CONTINUOUS
100
AcDbCircle
 10
2.686226340699499
 20
1.5915045009195912
 30
0.0
 40
0.06250000000000076
100
AcDbArc
 50
2.0355549961366217E-13
 51
79.88864708569972
  0
ARC
  5
b59c6d40
330
1F
  8
Layer
100
AcDbEntity
  6
CONTINUOUS
100
AcDbCircle
 10
2.842476340700168
 20
2.46768138802618
 30
0.0
 40
0.8274999999999999
100
AcDbArc
 50
-169.88864708570003
 51
-100.11135291430007
  0
ARC
  5
256b63a7
330
1F
  8
Layer
100
AcDbEntity
  6
CONTINUOUS
100
AcDbCircle
 10
1.9662994535935794
 20
2.311431388025512
 30
0.0
 40
0.06250000000000078
100
AcDbArc
 50
10.111352914300285
 51
89.99999999999959
  0
LINE
  5
3b241acd
330
1F
  8
Layer
100
AcDbEntity
  6
CONTINUOUS
100
AcDbLine
 10
1.9662994535935798
 20
2.373931388025513
 30
0.0
 11
1.9028795188935788
 21
2.373931388025513
 31
0.0
  0
ARC
  5
93ec33a4
330
1F
  8
Layer
100
AcDbEntity
  6
CONTINUOUS
100
AcDbCircle
 10
1.9028795188935788
 20
2.311431388025513
 30
0.0
 40
0.06250000000000001
100
AcDbArc
 50
90.0
 51
-170.5584134460646
  0
ARC
  5
8c462c28
330
1F
  8
Layer
100
AcDbEntity
  6
CONTINUOUS
100
AcDbCircle
 10
2.8424763406999993
 20
2.4676813879999995
 30
0.0
 40
1.3275000000000015
100
AcDbArc
 50
-172.9048321219
 51
-97.09516787810004
  0
ARC
  5
467febbc
330
1F
  8
Layer
100
AcDbEntity
  6
CONTINUOUS
100
AcDbCircle
 10
2.686226340700269
 20
1.212368304542297
 30
0.0
 40
0.06250000000000132
100
AcDbArc
 50
-97.09516787809955
 51
-6.106664988409822E-13
  0
LINE
  5
0c962cdb
330
1F
  8
Layer
100
AcDbEntity
  6
CONTINUOUS
100
AcDbLine
 10
2.74872634070027
 20
1.2123683045422964
 30
0.0
 11
2.74872634070027
 21
1.2753759793422954
 31
0.0
  0
ARC
  5
b5261c0c
330
1F
  8
Layer
100
AcDbEntity
  6
CONTINUOUS
100
AcDbCircle
 10
2.686226340700271
 20
1.2753759793422959
 30
0.0
 40
0.062499999999999396
100
AcDbArc
 50
-4.0711099922733595E-13
 51
82.53401179470083
  0
ARC
  5
b05f1acf
330
1F
  8
Layer
100
AcDbEntity
  6
CONTINUOUS
100
AcDbCircle
 10
2.842476340700271
 20
2.467681387993954
 30
0.0
 40
1.1399999999999995
100
AcDbArc
 50
-172.53401179469998
 51
-97.46598820530002
  0
ARC
  5
0c20023b
330
1F
  8
Layer
100
AcDbEntity
  6
CONTINUOUS
100
AcDbCircle
 10
1.6501709320486126
 20
2.3114313879939523
 30
0.0
 40
0.06249999999999985
100
AcDbArc
 50
7.465988205299917
 51
90.0
  0
LINE
  5
5fc781ec
330
1F
  8
Layer
100
AcDbEntity
  6
CONTINUOUS
100
AcDbLine
 10
1.6501709320486126
 20
2.3739313879939523
 30
0.0
 11
1.5871632572486136
 21
2.3739313879939523
 31
0.0
  0
ARC
  5
0c72ccae
330
1F
  8
Layer
100
AcDbEntity
  6
CONTINUOUS
100
AcDbCircle
 10
1.5871632572486138
 20
2.3114313879939523
 30
0.0
 40
0.06250000000000026
100
AcDbArc
 50
90.00000000000021
 51
-172.90483212836298
  0
ARC
  5
f761bbd9
330
1F
  8
Layer
100
AcDbEntity
  6
CONTINUOUS
100
AcDbCircle
 10
2.842476340699999
 20
2.467681387999999
 30
0.0
 40
1.64
100
AcDbArc
 50
-174.31558229799998
 51
-95.68441770200003
  0
ARC
  5
62665b43
330
1F
  8
Layer
100
AcDbEntity
  6
CONTINUOUS
100
AcDbCircle
 10
2.6862263406996156
 20
0.8979386742090165
 30
0.0
 40
0.0625000000000006
100
AcDbArc
 50
-95.68441770199975
 51
0.0
  0
LINE
  5
fd7c6e49
330
1F
  8
Layer
100
AcDbEntity
  6
CONTINUOUS
100
AcDbLine
 10
2.7487263406996165
 20
0.8979386742090165
 30
0.0
 11
2.7487263406996165
 21
0.9607603757090164
 31
0.0
  0
ARC
  5
b1f53b01
330
1F
  8
Layer
100
AcDbEntity
  6
CONTINUOUS
100
AcDbCircle
 10
2.6862263406996165
 20
0.9607603757090164
 30
0.0
 40
0.06249999999999975
100
AcDbArc
 50
0.0
 51
84.08025539840003
  0
ARC
  5
75f69f66
330
1F
  8
Layer
100
AcDbEntity
  6
CONTINUOUS
100
AcDbCircle
 10
2.8424763406992186
 20
2.4676813880716804
 30
0.0
 40
1.4524999999999972
100
AcDbArc
 50
-174.08025539840008
 51
-95.91974460159996
  0
ARC
  5
23a49719
330
1F
  8
Layer
100
AcDbEntity
  6
CONTINUOUS
100
AcDbCircle
 10
1.3355553283365542
 20
2.3114313880720783
 30
0.0
 40
0.06250000000000017
100
AcDbArc
 50
5.919744601599936
 51
89.9999999999998
  0
LINE
  5
98e56ebf
330
1F
  8
Layer
100
AcDbEntity
  6
CONTINUOUS
100
AcDbLine
 10
1.3355553283365544
 20
2.3739313880720783
 30
0.0
 11
1.2727336269365555
 21
2.3739313880720783
 31
0.0
  0
ARC
  5
734a6144
330
1F
  8
Layer
100
AcDbEntity
  6
CONTINUOUS
100
AcDbCircle
 10
1.2727336269365555
 20
2.311431388072078
 30
0.0
 40
0.06250000000000044
100
AcDbArc
 50
90.0
 51
-174.3155822343996
  0
ARC
  5
eedea2b4
330
1F
  8
Layer
100
AcDbEntity
  6
CONTINUOUS
100
AcDbCircle
 10
2.8424763406999998
 20
2.467681388
 30
0.0
 40
1.9525
100
AcDbArc
 50
-175.25783340029997
 51
-94.74216659970006
  0
ARC
  5
e134f704
330
1F
  8
Layer
100
AcDbEntity
  6
CONTINUOUS
100
AcDbCircle
 10
2.6862263407006273
 20
0.5841512083903935
 30
0.0
 40
0.06250000000000008
100
AcDbArc
 50
-94.74216659970023
 51
-2.0355549961366507E-13
  0
LINE
  5
d8cfff84
330
1F
  8
Layer
100
AcDbEntity
  6
CONTINUOUS
100
AcDbLine
 10
2.7487263407006273
 20
0.5841512083903933
 30
0.0
 11
2.7487263407006273
 21
0.6468732741903933
 31
0.0
  0
ARC
  5
132cbcba
330
1F
  8
Layer
100
AcDbEntity
  6
CONTINUOUS
100
AcDbCircle
 10
2.6862263407006273
 20
0.6468732741903933
 30
0.0
 40
0.06250000000000004
100
AcDbArc
 50
0.0
 51
85.0952619032998
  0
ARC
  5
dede309d
330
1F
  8
Layer
100
AcDbEntity
  6
CONTINUOUS
100
AcDbCircle
 10
2.8424763407011415
 20
2.467681388050785
 30
0.0
 40
1.7649999999999997
100
AcDbArc
 50
-175.0952619033
 51
-94.9047380966999
  0
ARC
  5
44c3c588
330
1F
  8
Layer
100
AcDbEntity
  6
CONTINUOUS
100
AcDbCircle
 10
1.0216682268407495
 20
2.3114313880502673
 30
0.0
 40
0.06250000000000067
100
AcDbArc
 50
4.904738096700582
 51
89.99999999999939
  0
LINE
  5
0caa5cd7
330
1F
  8
Layer
100
AcDbEntity
  6
CONTINUOUS
100
AcDbLine
 10
1.0216682268407502
 20
2.373931388050268
 30
0.0
 11
0.9589461611407502
 21
2.373931388050268
 31
0.0
  0
ARC
  5
cca7c445
330
1F
  8
Layer
100
AcDbEntity
  6
CONTINUOUS
100
AcDbCircle
 10
0.9589461611407499
 20
2.311431388050268
 30
0.0
 40
0.06249999999999973
100
AcDbArc
 50
89.9999999999998
 51
-175.25783335876594
  0
ARC
  5
735bd464
330
1F
  8
Layer
100
AcDbEntity
  6
CONTINUOUS
100
AcDbCircle
 10
2.8424763406999984
 20
2.4676813879999986
 30
0.0
 40
2.2650000000000006
100
AcDbArc
 50
-175.93189924640004
 51
-94.06810075359999
  0
ARC
  5
2c1ce22a
330
1F
  8
Layer
100
AcDbEntity
  6
CONTINUOUS
100
AcDbCircle
 10
2.6862263406983535
 20
0.27073073140811976
 30
0.0
 40
0.06250000000000028
100
AcDbArc
 50
-94.0681007535999
 51
4.0711099922732727E-13
  0
LINE
  5
11d6c2f4
330
1F
  8
Layer
100
AcDbEntity
  6
CONTINUOUS
100
AcDbLine
 10
2.748726340698354
 20
0.2707307314081202
 30
0.0
 11
2.748726340698354
 21
0.33339323090812
 31
0.0
  0
ARC
  5
03232c4f
330
1F
  8
Layer
100
AcDbEntity
  6
CONTINUOUS
100
AcDbCircle
 10
2.686226340698354
 20
0.33339323090812
 30
0.0
 40
0.06250000000000017
100
AcDbArc
 50
0.0
 51
85.81287895910017
  0
ARC
  5
d7d16eba
330
1F
  8
Layer
100
AcDbEntity
  6
CONTINUOUS
100
AcDbCircle
 10
2.842476340697583
 20
2.467681387999435
 30
0.0
 40
2.0774999999999997
100
AcDbArc
 50
-175.8128789591
 51
-94.18712104090005
  0
ARC
  5
6bed1151
330
1F
  8
Layer
100
AcDbEntity
  6
CONTINUOUS
100
AcDbCircle
 10
0.7081881836062682
 20
2.3114313880002073
 30
0.0
 40
0.06249999999999997
100
AcDbArc
 50
4.187121040899864
 51
90.00000000000043
  0
LINE
  5
3ee0b9ad
330
1F
  8
Layer
100
AcDbEntity
  6
CONTINUOUS
100
AcDbLine
 10
0.7081881836062678
 20
2.3739313880002073
 30
0.0
 11
0.6455256841062678
 21
2.3739313880002073
 31
0.0
  0
ARC
  5
6524f7a7
330
1F
  8
Layer
100
AcDbEntity
  6
CONTINUOUS
100
AcDbCircle
 10
0.6455256841062678
 20
2.311431388000207
 30
0.0
 40
0.0625000000000003
100
AcDbArc
 50
90.0
 51
-175.9318992445859
  0
ARC
  5
0a20d10f
330
1F
  8
Layer
100
AcDbEntity
  6
CONTINUOUS
100
AcDbCircle
 10
2.8424763406999993
 20
2.467681387999999
 30
0.0
 40
1.0149999999999988
100
AcDbArc
 50
-80.5584134735001
 51
-9.441586526499956
  0
ARC
  5
2abd6b60
330
1F
  8
Layer
100
AcDbEntity
  6
CONTINUOUS
100
AcDbCircle
 10
3.782073162480406
 20
2.3114313879995008
 30
0.0
 40
0.06250000000000032
100
AcDbArc
 50
-9.441586526499561
 51
89.99999999999959
  0
LINE
  5
b5a08c8a
330
1F
  8
Layer
100
AcDbEntity
  6
CONTINUOUS
100
AcDbLine
 10
3.7820731624804065
 20
2.373931387999501
 30
0.0
 11
3.7186532277804054
 21
2.373931387999501
 31
0.0
  0
ARC
  5
7614035d
330
1F
  8
Layer
100
AcDbEntity
  6
CONTINUOUS
100
AcDbCircle
 10
3.718653227780405
 20
2.3114313879995017
 30
0.0
 40
0.06249999999999981
100
AcDbArc
 50
89.99999999999959
 51
169.88864708570077
  0
ARC
  5
f5717822
330
1F
  8
Layer
100
AcDbEntity
  6
CONTINUOUS
100
AcDbCircle
 10
2.8424763406738167
 20
2.4676813880001696
 30
0.0
 40
0.8275000000000005
100
AcDbArc
 50
-79.88864708569997
 51
-10.11135291430006
  0
ARC
  5
64a29583
330
1F
  8
Layer
100
AcDbEntity
  6
CONTINUOUS
100
AcDbCircle
 10
2.9987263406744855
 20
1.5915045008935804
 30
0.0
 40
0.06250000000000076
100
AcDbArc
 50
100.1113529143003
 51
179.9999999999998
  0
LINE
  5
2b80cac2
330
1F
  8
Layer
100
AcDbEntity
  6
CONTINUOUS
100
AcDbLine
 10
2.9362263406744846
 20
1.5915045008935806
 30
0.0
 11
2.9362263406744846
 21
1.5280845661935807
 31
0.0
  0
ARC
  5
4502d59a
330
1F
  8
Layer
100
AcDbEntity
  6
CONTINUOUS
100
AcDbCircle
 10
2.998726340674485
 20
1.5280845661935807
 30
0.0
 40
0.06250000000000042
100
AcDbArc
 50
180.0
 51
-80.55841344606613
  0
ARC
  5
4afa4150
330
1F
  8
Layer
100
AcDbEntity
  6
CONTINUOUS
100
AcDbCircle
 10
2.842476340699998
 20
2.467681388
 30
0.0
 40
1.3275000000000017
100
AcDbArc
 50
-82.90483212189997
 51
-7.095167878100073
  0
ARC
  5
7d7c7dc3
330
1F
  8
Layer
100
AcDbEntity
  6
CONTINUOUS
100
AcDbCircle
 10
4.097789424157702
 20
2.3114313880002695
 30
0.0
 40
0.0625000000000001
100
AcDbArc
 50
-7.095167878100529
 51
90.00000000000082
  0
LINE
  5
81c111ea
330
1F
  8
Layer
100
AcDbEntity
  6
CONTINUOUS
100
AcDbLine
 10
4.0977894241577015
 20
2.3739313880002695
 30
0.0
 11
4.034781749257702
 21
2.3739313880002695
 31
0.0
  0
ARC
  5
34e76765
330
1F
  8
Layer
100
AcDbEntity
  6
CONTINUOUS
100
AcDbCircle
 10
4.034781749257702
 20
2.311431388000269
 30
0.0
 40
0.06250000000000029
100
AcDbArc
 50
90.0
 51
172.53401179469972
  0
ARC
  5
3862fb13
330
1F
  8
Layer
100
AcDbEntity
  6
CONTINUOUS
100
AcDbCircle
 10
2.8424763406060443
 20
2.467681388000271
 30
0.0
 40
1.1399999999999986
100
AcDbArc
 50
-82.53401179470009
 51
-7.465988205300028
  0
ARC
  5
370b0d30
330
1F
  8
Layer
100
AcDbEntity
  6
CONTINUOUS
100
AcDbCircle
 10
2.998726340606044
 20
1.2753759793486124
 30
0.0
 40
0.06250000000000074
100
AcDbArc
 50
97.46598820530022
 51
179.9999999999996
  0
LINE
  5
de74fddc
330
1F
  8
Layer
100
AcDbEntity
  6
CONTINUOUS
100
AcDbLine
 10
2.936226340606043
 20
1.2753759793486128
 30
0.0
 11
2.936226340606043
 21
1.2123683045486138
 31
0.0
  0
ARC
  5
f2b3abbf
330
1F
  8
Layer
100
AcDbEntity
  6
CONTINUOUS
100
AcDbCircle
 10
2.9987263406060434
 20
1.212368304548614
 30
0.0
 40
0.06250000000000067
100
AcDbArc
 50
-179.9999999999998
 51
-82.9048320373893
  0
ARC
  5
e5c6976c
330
1F
  8
Layer
100
AcDbEntity
  6
CONTINUOUS
100
AcDbCircle
 10
2.8424763406999993
 20
2.467681387999998
 30
0.0
 40
1.639999999999999
100
AcDbArc
 50
-84.31558229800002
 51
-5.684417701999884
  0
ARC
  5
30dc3f00
330
1F
  8
Layer
100
AcDbEntity
  6
CONTINUOUS
100
AcDbCircle
 10
4.412219054490982
 20
2.311431387999619
 30
0.0
 40
0.06250000000000037
100
AcDbArc
 50
-5.684417701999779
 51
90.0
  0
LINE
  5
e22d64fe
330
1F
  8
Layer
100
AcDbEntity
  6
CONTINUOUS
100
AcDbLine
 10
4.412219054490982
 20
2.3739313879996193
 30
0.0
 11
4.349397353090982
 21
2.3739313879996193
 31
0.0
  0
ARC
  5
bee8dafa
330
1F
  8
Layer
100
AcDbEntity
  6
CONTINUOUS
100
AcDbCircle
 10
4.349397353090983
 20
2.311431387999618
 30
0.0
 40
0.06250000000000104
100
AcDbArc
 50
90.00000000000082
 51
174.08025539839895
  0
ARC
  5
c8081c09
330
1F
  8
Layer
100
AcDbEntity
  6
CONTINUOUS
100
AcDbCircle
 10
2.842476340728316
 20
2.4676813879992228
 30
0.0
 40
1.4524999999999995
100
AcDbArc
 50
-84.08025539840004
 51
-5.919744601599992
  0
ARC
  5
a94be0a3
330
1F
  8
Layer
100
AcDbEntity
  6
CONTINUOUS
100
AcDbCircle
 10
2.9987263407279183
 20
0.9607603756365573
 30
0.0
 40
0.06249999999999976
100
AcDbArc
 50
95.91974460159959
 51
-179.9999999999998
  0
LINE
  5
b32f1eb3
330
1F
  8
Layer
100
AcDbEntity
  6
CONTINUOUS
100
AcDbLine
 10
2.9362263407279188
 20
0.960760375636557
 30
0.0
 11
2.9362263407279188
 21
0.8979386741365571
 31
0.0
  0
ARC
  5
dd987726
330
1F
  8
Layer
100
AcDbEntity
  6
CONTINUOUS
100
AcDbCircle
 10
2.998726340727919
 20
0.8979386741365571
 30
0.0
 40
0.06250000000000044
100
AcDbArc
 50
180.0
 51
-84.31558231654166
  0
ARC
  5
0ca1cc90
330
1F
  8
Layer
100
AcDbEntity
  6
CONTINUOUS
100
AcDbCircle
 10
2.8424763407000007
 20
2.4676813879999973
 30
0.0
 40
1.9524999999999968
100
AcDbArc
 50
-85.25783340030004
 51
-4.742166599699882
  0
ARC
  5
77a43e07
330
1F
  8
Layer
100
AcDbEntity
  6
CONTINUOUS
100
AcDbCircle
 10
4.726006520309605
 20
2.311431388000631
 30
0.0
 40
0.06249999999999957
100
AcDbArc
 50
-4.74216659970027
 51
90.00000000000082
  0
LINE
  5
e50f4799
330
1F
  8
Layer
100
AcDbEntity
  6
CONTINUOUS
100
AcDbLine
 10
4.726006520309604
 20
2.3739313880006305
 30
0.0
 11
4.663284454609605
 21
2.3739313880006305
 31
0.0
  0
ARC
  5
7a554134
330
1F
  8
Layer
100
AcDbEntity
  6
CONTINUOUS
100
AcDbCircle
 10
4.663284454609605
 20
2.3114313880006305
 30
0.0
 40
0.06249999999999976
100
AcDbArc
 50
90.0
 51
175.09526190330018
  0
ARC
  5
da020206
330
1F
  8
Layer
100
AcDbEntity
  6
CONTINUOUS
100
AcDbCircle
 10
2.842476340749214
 20
2.467681388001144
 30
0.0
 40
1.7649999999999988
100
AcDbArc
 50
-85.09526190330017
 51
-4.904738096699879
  0
ARC
  5
350a1df4
330
1F
  8
Layer
100
AcDbEntity
  6
CONTINUOUS
100
AcDbCircle
 10
2.9987263407497258
 20
0.6468732741407526
 30
0.0
 40
0.062499999999999736
100
AcDbArc
 50
94.90473809669943
 51
180.0
  0
LINE
  5
c54954df
330
1F
  8
Layer
100
AcDbEntity
  6
CONTINUOUS
100
AcDbLine
 10
2.936226340749726
 20
0.6468732741407526
 30
0.0
 11
2.936226340749726
 21
0.5841512083407525
 31
0.0
  0
ARC
  5
4f6ad0e7
330
1F
  8
Layer
100
AcDbEntity
  6
CONTINUOUS
100
AcDbCircle
 10
2.9987263407497267
 20
0.5841512083407525
 30
0.0
 40
0.06250000000000049
100
AcDbArc
 50
180.0
 51
-85.2578334425435
  0
ARC
  5
48a365e7
330
1F
  8
Layer
100
AcDbEntity
  6
CONTINUOUS
100
AcDbCircle
 10
2.8424763407
 20
2.4676813879999977
 30
0.0
 40
2.2649999999999997
100
AcDbArc
 50
-85.93189924640005
 51
-4.068100753599968
  0
ARC
  5
b6008d31
330
1F
  8
Layer
100
AcDbEntity
  6
CONTINUOUS
100
AcDbCircle
 10
5.039426997291878
 20
2.311431387998354
 30
0.0
 40
0.06250000000000071
100
AcDbArc
 50
-4.068100753600294
 51
90.00000000000082
  0
LINE
  5
06b02fd2
330
1F
  8
Layer
100
AcDbEntity
  6
CONTINUOUS
100
AcDbLine
 10
5.039426997291877
 20
2.373931387998355
 30
0.0
 11
4.976764497791876
 21
2.373931387998355
 31
0.0
  0
ARC
  5
6e89fa94
330
1F
  8
Layer
100
AcDbEntity
  6
CONTINUOUS
100
AcDbCircle
 10
4.9767644977918755
 20
2.3114313879983563
 30
0.0
 40
0.06249999999999852
100
AcDbArc
 50
89.99999999999919
 51
175.81287895910128
  0
ARC
  5
2584e05f
330
1F
  8
Layer
100
AcDbEntity
  6
CONTINUOUS
100
AcDbCircle
 10
2.8424763407005638
 20
2.4676813879975827
 30
0.0
 40
2.077499999999998
100
AcDbArc
 50
-85.81287895910002
 51
-4.187121040900008
  0
ARC
  5
d411cb88
330
1F
  8
Layer
100
AcDbEntity
  6
CONTINUOUS
100
AcDbCircle
 10
2.9987263406997906
 20
0.33339323090627015
 30
0.0
 40
0.062499999999999854
100
AcDbArc
 50
94.18712104089987
 51
-179.9999999999996
  0
LINE
  5
7f208672
330
1F
  8
Layer
100
AcDbEntity
  6
CONTINUOUS
100
AcDbLine
 10
2.9362263406997906
 20
0.3333932309062697
 30
0.0
 11
2.9362263406997906
 21
0.2707307314062697
 31
0.0
  0
ARC
  5
712ff239
330
1F
  8
Layer
100
AcDbEntity
  6
CONTINUOUS
100
AcDbCircle
 10
2.9987263406997906
 20
0.2707307314062697
 30
0.0
 40
0.06250000000000022
100
AcDbArc
 50
180.0
 51
-85.93189924458561
  0
ARC
  5
c20f7384
330
1F
  8
Layer
100
AcDbEntity
  6
CONTINUOUS
100
AcDbCircle
 10
2.842476340700001
 20
2.4676813880000004
 30
0.0
 40
1.0149999999999972
100
AcDbArc
 50
9.441586526499949
 51
80.55841347350012
  0
ARC
  5
bcad61f5
330
1F
  8
Layer
100
AcDbEntity
  6
CONTINUOUS
100
AcDbCircle
 10
2.9987263407004976
 20
3.4072782097804057
 30
0.0
 40
0.06250000000000032
100
AcDbArc
 50
80.55841347350045
 51
179.9999999999996
  0
LINE
  5
05be2fb9
330
1F
  8
Layer
100
AcDbEntity
  6
CONTINUOUS
100
AcDbLine
 10
2.936226340700497
 20
3.407278209780406
 30
0.0
 11
2.936226340700497
 21
3.3438582750804065
 31
0.0
  0
ARC
  5
0c1186cc
330
1F
  8
Layer
100
AcDbEntity
  6
CONTINUOUS
100
AcDbCircle
 10
2.9987263407004967
 20
3.3438582750804065
 30
0.0
 40
0.06249999999999981
100
AcDbArc
 50
180.0
 51
-100.11135291429916
  0
ARC
  5
805ed475
330
1F
  8
Layer
100
AcDbEntity
  6
CONTINUOUS
100
AcDbCircle
 10
2.8424763406998297
 20
2.467681387973818
 30
0.0
 40
0.8274999999999998
100
AcDbArc
 50
10.11135291429997
 51
79.8886470857
  0
ARC
  5
679eb13f
330
1F
  8
Layer
100
AcDbEntity
  6
CONTINUOUS
100
AcDbCircle
 10
3.718653227806419
 20
2.623931387974486
 30
0.0
 40
0.06250000000000078
100
AcDbArc
 50
-169.88864708569972
 51
-90.00000000000043
  0
LINE
  5
8c26a3b8
330
1F
  8
Layer
100
AcDbEntity
  6
CONTINUOUS
100
AcDbLine
 10
3.7186532278064184
 20
2.561431387974485
 30
0.0
 11
3.7820731625064195
 21
2.561431387974485
 31
0.0
  0
ARC
  5
42c06bf8
330
1F
  8
Layer
100
AcDbEntity
  6
CONTINUOUS
100
AcDbCircle
 10
3.7820731625064195
 20
2.6239313879744857
 30
0.0
 40
0.06250000000000042
100
AcDbArc
 50
-90.0
 51
9.441586553935014
  0
ARC
  5
766e553e
330
1F
  8
Layer
100
AcDbEntity
  6
CONTINUOUS
100
AcDbCircle
 10
2.8424763406999984
 20
2.4676813879999986
 30
0.0
 40
1.3274999999999995
100
AcDbArc
 50
7.095167878100009
 51
82.90483212189999
  0
ARC
  5
65d605fb
330
1F
  8
Layer
100
AcDbEntity
  6
CONTINUOUS
100
AcDbCircle
 10
2.998726340699727
 20
3.7229944714577003
 30
0.0
 40
0.0625000000000001
100
AcDbArc
 50
82.90483212189952
 51
-179.9999999999996
  0
LINE
  5
096b7d2e
330
1F
  8
Layer
100
AcDbEntity
  6
CONTINUOUS
100
AcDbLine
 10
2.936226340699727
 20
3.7229944714577
 30
0.0
 11
2.936226340699727
 21
3.659986796657701
 31
0.0
  0
ARC
  5
0f427496
330
1F
  8
Layer
100
AcDbEntity
  6
CONTINUOUS
100
AcDbCircle
 10
2.9987263406997275
 20
3.6599867966577007
 30
0.0
 40
0.0625000000000002
100
AcDbArc
 50
179.9999999999996
 51
-97.4659882052999
  0
ARC
  5
933df335
330
1F
  8
Layer
100
AcDbEntity
  6
CONTINUOUS
100
AcDbCircle
 10
2.8424763406997267
 20
2.4676813880060418
 30
0.0
 40
1.1399999999999997
100
AcDbArc
 50
7.465988205300046
 51
82.53401179469999
  0
ARC
  5
b1be8200
330
1F
  8
Layer
100
AcDbEntity
  6
CONTINUOUS
100
AcDbCircle
 10
4.034781749351385
 20
2.623931388006043
 30
0.0
 40
0.06250000000000015
100
AcDbArc
 50
-172.53401179470052
 51
-90.0
  0
LINE
  5
74b2c5aa
330
1F
  8
Layer
100
AcDbEntity
  6
CONTINUOUS
100
AcDbLine
 10
4.034781749351385
 20
2.561431388006043
 30
0.0
 11
4.097789424251385
 21
2.561431388006043
 31
0.0
  0
ARC
  5
d9b60213
330
1F
  8
Layer
100
AcDbEntity
  6
CONTINUOUS
100
AcDbCircle
 10
4.097789424251385
 20
2.623931388006044
 30
0.0
 40
0.06250000000000067
100
AcDbArc
 50
-90.0
 51
7.095167882962244
  0
ARC
  5
ad114939
330
1F
  8
Layer
100
AcDbEntity
  6
CONTINUOUS
100
AcDbCircle
 10
2.8424763407
 20
2.467681388
 30
0.0
 40
1.6399999999999975
100
AcDbArc
 50
5.684417701999967
 51
84.31558229800005
  0
ARC
  5
b419b289
330
1F
  8
Layer
100
AcDbEntity
  6
CONTINUOUS
100
AcDbCircle
 10
2.9987263407003812
 20
4.03742410179098
 30
0.0
 40
0.06250000000000104
100
AcDbArc
 50
84.31558229800031
 51
179.99999999999918
  0
LINE
  5
caabc4e1
330
1F
  8
Layer
100
AcDbEntity
  6
CONTINUOUS
100
AcDbLine
 10
2.9362263407003804
 20
4.037424101790981
 30
0.0
 11
2.9362263407003804
 21
3.9746024003909803
 31
0.0
  0
ARC
  5
e3c0bcc4
330
1F
  8
Layer
100
AcDbEntity
  6
CONTINUOUS
100
AcDbCircle
 10
2.9987263407003812
 20
3.974602400390981
 30
0.0
 40
0.06250000000000092
100
AcDbArc
 50
-179.9999999999996
 51
-95.91974460160027
  0
ARC
  5
1c74f28c
330
1F
  8
Layer
100
AcDbEntity
  6
CONTINUOUS
100
AcDbCircle
 10
2.8424763407007774
 20
2.4676813880283146
 30
0.0
 40
1.4524999999999986
100
AcDbArc
 50
5.919744601599958
 51
84.08025539840001
  0
ARC
  5
19fb67d7
330
1F
  8
Layer
100
AcDbEntity
  6
CONTINUOUS
100
AcDbCircle
 10
4.349397353063442
 20
2.623931388027917
 30
0.0
 40
0.06249999999999941
100
AcDbArc
 50
-174.0802553984
 51
-90.0
  0
LINE
  5
79548185
330
1F
  8
Layer
100
AcDbEntity
  6
CONTINUOUS
100
AcDbLine
 10
4.349397353063442
 20
2.5614313880279176
 30
0.0
 11
4.412219054463442
 21
2.5614313880279176
 31
0.0
  0
ARC
  5
7f47ec36
330
1F
  8
Layer
100
AcDbEntity
  6
CONTINUOUS
100
AcDbCircle
 10
4.412219054463442
 20
2.623931388027918
 30
0.0
 40
0.06250000000000044
100
AcDbArc
 50
-90.0
 51
5.68441767437961
  0
ARC
  5
eef21491
330
1F
  8
Layer
100
AcDbEntity
  6
CONTINUOUS
100
AcDbCircle
 10
2.8424763406999984
 20
2.4676813879999995
 30
0.0
 40
1.9524999999999992
100
AcDbArc
 50
4.7421665996999804
 51
85.25783340029999
  0
ARC
  5
4c1023b4
330
1F
  8
Layer
100
AcDbEntity
  6
CONTINUOUS
100
AcDbCircle
 10
2.998726340699369
 20
4.351211567609606
 30
0.0
 40
0.06249999999999957
100
AcDbArc
 50
85.25783340029973
 51
-179.99999999999918
  0
LINE
  5
516e4961
330
1F
  8
Layer
100
AcDbEntity
  6
CONTINUOUS
100
AcDbLine
 10
2.9362263406993696
 20
4.351211567609605
 30
0.0
 11
2.9362263406993696
 21
4.288489501909605
 31
0.0
  0
ARC
  5
1918af21
330
1F
  8
Layer
100
AcDbEntity
  6
CONTINUOUS
100
AcDbCircle
 10
2.998726340699371
 20
4.288489501909606
 30
0.0
 40
0.06250000000000136
100
AcDbArc
 50
-179.99999999999918
 51
-94.9047380967005
  0
ARC
  5
6213dc27
330
1F
  8
Layer
100
AcDbEntity
  6
CONTINUOUS
100
AcDbCircle
 10
2.8424763406988527
 20
2.467681388049214
 30
0.0
 40
1.7649999999999981
100
AcDbArc
 50
4.904738096699967
 51
85.09526190329998
  0
ARC
  5
1b11d58f
330
1F
  8
Layer
100
AcDbEntity
  6
CONTINUOUS
100
AcDbCircle
 10
4.663284454559244
 20
2.623931388049731
 30
0.0
 40
0.06250000000000067
100
AcDbArc
 50
-175.09526190329944
 51
-90.00000000000082
  0
LINE
  5
b42e4b36
330
1F
  8
Layer
100
AcDbEntity
  6
CONTINUOUS
100
AcDbLine
 10
4.663284454559243
 20
2.56143138804973
 30
0.0
 11
4.726006520259242
 21
2.56143138804973
 31
0.0
  0
ARC
  5
c12460b4
330
1F
  8
Layer
100
AcDbEntity
  6
CONTINUOUS
100
AcDbCircle
 10
4.726006520259242
 20
2.62393138804973
 30
0.0
 40
0.0625000000000003
100
AcDbArc
 50
-90.0
 51
4.742166549874173
  0
ARC
  5
61a75b13
330
1F
  8
Layer
100
AcDbEntity
  6
CONTINUOUS
100
AcDbCircle
 10
2.8424763406999993
 20
2.467681387999999
 30
0.0
 40
2.2650000000000006
100
AcDbArc
 50
4.0681007536000005
 51
85.9318992464
  0
ARC
  5
adae5430
330
1F
  8
Layer
100
AcDbEntity
  6
CONTINUOUS
100
AcDbCircle
 10
2.998726340701645
 20
4.664632044591878
 30
0.0
 40
0.06250000000000061
100
AcDbArc
 50
85.93189924640012
 51
180.0
  0
LINE
  5
a05a46a2
330
1F
  8
Layer
100
AcDbEntity
  6
CONTINUOUS
100
AcDbLine
 10
2.9362263407016447
 20
4.664632044591878
 30
0.0
 11
2.9362263407016447
 21
4.601969545091879
 31
0.0
  0
ARC
  5
af141ba3
330
1F
  8
Layer
100
AcDbEntity
  6
CONTINUOUS
100
AcDbCircle
 10
2.9987263407016433
 20
4.601969545091878
 30
0.0
 40
0.06249999999999858
100
AcDbArc
 50
179.99999999999918
 51
-94.18712104089911
  0
ARC
  5
23dd87d5
330
1F
  8
Layer
100
AcDbEntity
  6
CONTINUOUS
100
AcDbCircle
 10
2.842476340702415
 20
2.467681388000563
 30
0.0
 40
2.0775000000000015
100
AcDbArc
 50
4.187121040900026
 51
85.81287895909996
  0
ARC
  5
4e114a62
330
1F
  8
Layer
100
AcDbEntity
  6
CONTINUOUS
100
AcDbCircle
 10
4.976764497793731
 20
2.623931387999791
 30
0.0
 40
0.0625000000000001
100
AcDbArc
 50
-175.81287895910054
 51
-89.99999999999919
  0
LINE
  5
a39b0292
330
1F
  8
Layer
100
AcDbEntity
  6
CONTINUOUS
100
AcDbLine
 10
4.976764497793732
 20
2.561431387999791
 30
0.0
 11
5.039426997293733
 21
2.561431387999791
 31
0.0
  0
ARC
  5
497fa17f
330
1F
  8
Layer
100
AcDbEntity
  6
CONTINUOUS
100
AcDbCircle
 10
5.039426997293733
 20
2.623931387999792
 30
0.0
 40
0.06250000000000071
100
AcDbArc
 50
-90.0
 51
4.068100755414277
  0
ARC
  5
7c229400
330
1F
  8
Layer
100
AcDbEntity
  6
CONTINUOUS
100
AcDbCircle
 10
2.842476340699999
 20
2.4676813879999986
 30
0.0
 40
1.0149999999999992
100
AcDbArc
 50
99.44158652649999
 51
170.55841347349997
  0
ARC
  5
f008fa31
330
1F
  8
Layer
100
AcDbEntity
  6
CONTINUOUS
100
AcDbCircle
 10
1.9028795189195917
 20
2.6239313880004977
 30
0.0
 40
0.0625
100
AcDbArc
 50
170.5584134735
 51
-90.00000000000021
  0
LINE
  5
5ee2aad1
330
1F
  8
Layer
100
AcDbEntity
  6
CONTINUOUS
100
AcDbLine
 10
1.9028795189195915
 20
2.5614313880004977
 30
0.0
 11
1.9662994536195926
 21
2.5614313880004977
 31
0.0
  0
ARC
  5
2a599a6b
330
1F
  8
Layer
100
AcDbEntity
  6
CONTINUOUS
100
AcDbCircle
 10
1.9662994536195932
 20
2.6239313880004964
 30
0.0
 40
0.0624999999999989
100
AcDbArc
 50
-90.00000000000063
 51
-10.111352914298969
  0
ARC
  5
5f86bb2b
330
1F
  8
Layer
100
AcDbEntity
  6
CONTINUOUS
100
AcDbCircle
 10
2.842476340726181
 20
2.4676813879998294
 30
0.0
 40
0.8275000000000001
100
AcDbArc
 50
100.11135291430007
 51
169.88864708569997
  0
ARC
  5
c1453761
330
1F
  8
Layer
100
AcDbEntity
  6
CONTINUOUS
100
AcDbCircle
 10
2.6862263407255123
 20
3.3438582751064185
 30
0.0
 40
0.06250000000000078
100
AcDbArc
 50
-79.88864708570011
 51
-4.0711099922732434E-13
  0
LINE
  5
86c4ccef
330
1F
  8
Layer
100
AcDbEntity
  6
CONTINUOUS
100
AcDbLine
 10
2.748726340725513
 20
3.343858275106418
 30
0.0
 11
2.748726340725513
 21
3.407278209806418
 31
0.0
  0
ARC
  5
c6129505
330
1F
  8
Layer
100
AcDbEntity
  6
CONTINUOUS
100
AcDbCircle
 10
2.6862263407255123
 20
3.407278209806418
 30
0.0
 40
0.06250000000000042
100
AcDbArc
 50
0.0
 51
99.44158655393441
  0
ARC
  5
a8207b9d
330
1F
  8
Layer
100
AcDbEntity
  6
CONTINUOUS
100
AcDbCircle
 10
2.842476340699999
 20
2.467681387999999
 30
0.0
 40
1.327500000000001
100
AcDbArc
 50
97.09516787810003
 51
172.9048321219
  0
ARC
  5
ca58309c
330
1F
  8
Layer
100
AcDbEntity
  6
CONTINUOUS
100
AcDbCircle
 10
1.587163257242296
 20
2.623931387999728
 30
0.0
 40
0.06250000000000067
100
AcDbArc
 50
172.90483212189997
 51
-90.00000000000021
  0
LINE
  5
c889c0b0
330
1F
  8
Layer
100
AcDbEntity
  6
CONTINUOUS
100
AcDbLine
 10
1.5871632572422958
 20
2.5614313879997277
 30
0.0
 11
1.6501709320422948
 21
2.5614313879997277
 31
0.0
  0
ARC
  5
5904271f
330
1F
  8
Layer
100
AcDbEntity
  6
CONTINUOUS
100
AcDbCircle
 10
1.6501709320422953
 20
2.6239313879997272
 30
0.0
 40
0.062499999999999396
100
AcDbArc
 50
-90.00000000000043
 51
-7.465988205299565
  0
ARC
  5
acaf8ca3
330
1F
  8
Layer
100
AcDbEntity
  6
CONTINUOUS
100
AcDbCircle
 10
2.8424763406939526
 20
2.4676813879997272
 30
0.0
 40
1.139999999999999
100
AcDbArc
 50
97.46598820530005
 51
172.53401179470004
  0
ARC
  5
d2b0b5c0
330
1F
  8
Layer
100
AcDbEntity
  6
CONTINUOUS
100
AcDbCircle
 10
2.6862263406939517
 20
3.6599867966513853
 30
0.0
 40
0.06250000000000015
100
AcDbArc
 50
-82.53401179470093
 51
4.0711099922733015E-13
  0
LINE
  5
084ce9e6
330
1F
  8
Layer
100
AcDbEntity
  6
CONTINUOUS
100
AcDbLine
 10
2.7487263406939517
 20
3.6599867966513857
 30
0.0
 11
2.7487263406939517
 21
3.7229944714513845
 31
0.0
  0
ARC
  5
51e43a76
330
1F
  8
Layer
100
AcDbEntity
  6
CONTINUOUS
100
AcDbCircle
 10
2.6862263406939517
 20
3.7229944714513845
 30
0.0
 40
0.0625
100
AcDbArc
 50
0.0
 51
97.09516787163751
  0
ARC
  5
6d22ac42
330
1F
  8
Layer
100
AcDbEntity
  6
CONTINUOUS
100
AcDbCircle
 10
2.842476340699999
 20
2.4676813879999986
 30
0.0
 40
1.639999999999999
100
AcDbArc
 50
95.68441770199998
 51
174.31558229799998
  0
ARC
  5
207bdf17
330
1F
  8
Layer
100
AcDbEntity
  6
CONTINUOUS
100
AcDbCircle
 10
1.272733626909017
 20
2.623931388000381
 30
0.0
 40
0.06250000000000044
100
AcDbArc
 50
174.31558229799984
 51
-90.0
  0
LINE
  5
d31b36f4
330
1F
  8
Layer
100
AcDbEntity
  6
CONTINUOUS
100
AcDbLine
 10
1.272733626909017
 20
2.5614313880003805
 30
0.0
 11
1.335555328309016
 21
2.5614313880003805
 31
0.0
  0
ARC
  5
a6e43d90
330
1F
  8
Layer
100
AcDbEntity
  6
CONTINUOUS
100
AcDbCircle
 10
1.3355553283090158
 20
2.623931388000381
 30
0.0
 40
0.06250000000000021
100
AcDbArc
 50
-89.9999999999998
 51
-5.919744601600341
  0
ARC
  5
0577bbff
330
1F
  8
Layer
100
AcDbEntity
  6
CONTINUOUS
100
AcDbCircle
 10
2.8424763406716815
 20
2.467681388000776
 30
0.0
 40
1.4524999999999988
100
AcDbArc
 50
95.9197446016
 51
174.08025539839997
  0
ARC
  5
bf49ccb3
330
1F
  8
Layer
100
AcDbEntity
  6
CONTINUOUS
100
AcDbCircle
 10
2.686226340672077
 20
3.974602400363443
 30
0.0
 40
0.06250000000000103
100
AcDbArc
 50
-84.08025539839933
 51
-8.142219984546429E-13
  0
LINE
  5
bbc3d3ea
330
1F
  8
Layer
100
AcDbEntity
  6
CONTINUOUS
100
AcDbLine
 10
2.7487263406720785
 20
3.974602400363442
 30
0.0
 11
2.7487263406720785
 21
4.037424101763442
 31
0.0
  0
ARC
  5
da34385d
330
1F
  8
Layer
100
AcDbEntity
  6
CONTINUOUS
100
AcDbCircle
 10
2.6862263406720777
 20
4.037424101763442
 30
0.0
 40
0.06250000000000044
100
AcDbArc
 50
0.0
 51
95.68441767437719
  0
ARC
  5
23330974
330
1F
  8
Layer
100
AcDbEntity
  6
CONTINUOUS
100
AcDbCircle
 10
2.8424763406999984
 20
2.467681388
 30
0.0
 40
1.9524999999999986
100
AcDbArc
 50
94.7421665997
 51
175.25783340030003
  0
ARC
  5
212f79cf
330
1F
  8
Layer
100
AcDbEntity
  6
CONTINUOUS
100
AcDbCircle
 10
0.9589461610903931
 20
2.62393138799937
 30
0.0
 40
0.062499999999999736
100
AcDbArc
 50
175.25783340030017
 51
-89.9999999999998
  0
LINE
  5
c70246ce
330
1F
  8
Layer
100
AcDbEntity
  6
CONTINUOUS
100
AcDbLine
 10
0.9589461610903933
 20
2.56143138799937
 30
0.0
 11
1.0216682267903934
 21
2.56143138799937
 31
0.0
  0
ARC
  5
0afd2cec
330
1F
  8
Layer
100
AcDbEntity
  6
CONTINUOUS
100
AcDbCircle
 10
1.0216682267903936
 20
2.62393138799937
 30
0.0
 40
0.06249999999999973
100
AcDbArc
 50
-90.00000000000021
 51
-4.904738096699822
  0
ARC
  5
0e0c339d
330
1F
  8
Layer
100
AcDbEntity
  6
CONTINUOUS
100
AcDbCircle
 10
2.842476340650784
 20
2.4676813879988537
 30
0.0
 40
1.7649999999999983
100
AcDbArc
 50
94.90473809669997
 51
175.09526190330004
  0
ARC
  5
8ce4a2c4
330
1F
  8
Layer
100
AcDbEntity
  6
CONTINUOUS
100
AcDbCircle
 10
2.6862263406502684
 20
4.288489501859244
 30
0.0
 40
0.062499999999999674
100
AcDbArc
 50
-85.09526190330058
 51
8.142219984546603E-13
  0
LINE
  5
a5cdec25
330
1F
  8
Layer
100
AcDbEntity
  6
CONTINUOUS
100
AcDbLine
 10
2.7487263406502684
 20
4.288489501859245
 30
0.0
 11
2.7487263406502684
 21
4.351211567559245
 31
0.0
  0
ARC
  5
12ce0602
330
1F
  8
Layer
100
AcDbEntity
  6
CONTINUOUS
100
AcDbCircle
 10
2.686226340650269
 20
4.351211567559246
 30
0.0
 40
0.06249999999999958
100
AcDbArc
 50
-8.14221998454666E-13
 51
94.74216654987526
  0
ARC
  5
3454b38c
330
1F
  8
Layer
100
AcDbEntity
  6
CONTINUOUS
100
AcDbCircle
 10
2.842476340699998
 20
2.467681388
 30
0.0
 40
2.2649999999999997
100
AcDbArc
 50
94.06810075359999
 51
175.93189924640004
  0
ARC
  5
2c810391
330
1F
  8
Layer
100
AcDbEntity
  6
CONTINUOUS
100
AcDbCircle
 10
0.6455256841081196
 20
2.6239313880016435
 30
0.0
 40
0.06250000000000012
100
AcDbArc
 50
175.9318992463997
 51
-90.0
  0
LINE
  5
7439097a
330
1F
  8
Layer
100
AcDbEntity
  6
CONTINUOUS
100
AcDbLine
 10
0.6455256841081196
 20
2.5614313880016435
 30
0.0
 11
0.7081881836081199
 21
2.5614313880016435
 31
0.0
  0
ARC
  5
13e89f68
330
1F
  8
Layer
100
AcDbEntity
  6
CONTINUOUS
100
AcDbCircle
 10
0.7081881836081196
 20
2.623931388001644
 30
0.0
 40
0.06250000000000046
100
AcDbArc
 50
-89.9999999999998
 51
-4.187121040900632
  0
ARC
  5
09c97a87
330
1F
  8
Layer
100
AcDbEntity
  6
CONTINUOUS
100
AcDbCircle
 10
2.842476340699436
 20
2.4676813880024135
 30
0.0
 40
2.077500000000002
100
AcDbArc
 50
94.18712104090002
 51
175.81287895909998
  0
ARC
  5
c01e08ce
330
1F
  8
Layer
100
AcDbEntity
  6
CONTINUOUS
100
AcDbCircle
 10
2.686226340700208
 20
4.601969545093731
 30
0.0
 40
0.06250000000000018
100
AcDbArc
 50
-85.81287895910019
 51
0.0
  0
LINE
  5
113ccd8f
330
1F
  8
Layer
100
AcDbEntity
  6
CONTINUOUS
100
AcDbLine
 10
2.748726340700208
 20
4.601969545093731
 30
0.0
 11
2.748726340700208
 21
4.66463204459373
 31
0.0
  0
ARC
  5
3f8b2a9e
330
1F
  8
Layer
100
AcDbEntity
  6
CONTINUOUS
100
AcDbCircle
 10
2.686226340700207
 20
4.664632044593729
 30
0.0
 40
0.06250000000000062
100
AcDbArc
 50
8.142219984546487E-13
 51
94.06810075541568
  0
CIRCLE
  5
2bc609f1
330
1F
  8
Layer
100
AcDbEntity
  6
CONTINUOUS
100
AcDbCircle
 10
4.909405474599999
 20
0.40075225420000005
 30
0.0
 40
0.1060000000000003
  0
CIRCLE
  5
3fa10cd7
330
1F
  8
Layer
100
AcDbEntity
  6
CONTINUOUS
100
AcDbCircle
 10
0.7755472068000002
 20
0.40075225420000016
 30
0.0
 40
0.106
  0
CIRCLE
  5
bf549f86
330
1F
  8
Layer
100
AcDbEntity
  6
CONTINUOUS
100
AcDbCircle
 10
0.7755472068000002
 20
4.5346105219
 30
0.0
 40
0.1060000000000002
  0
CIRCLE
  5
fcae6dc2
330
1F
  8
Layer
100
AcDbEntity
  6
CONTINUOUS
100
AcDbCircle
 10
4.909405474599999
 20
4.5346105219
 30
0.0
 40
0.1060000000000005
  0
ENDSEC
  0
SECTION
  2
OBJECTS
  0
DICTIONARY
  5
C
330
0
100
AcDbDictionary
  3
ACAD_GROUP
350
D
  3
ACAD_LAYOUT
350
1A
  3
ACAD_MLINESTYLE
350
17
  3
ACAD_PLOTSETTINGS
350
19
1001
ACAD
1000
TREAT_AS_HARD
1070
     0
  0
DICTIONARY
  5
D
102
{ACAD_REACTORS
330
C
102
}
330
C
100
AcDbDictionary
1001
ACAD
1000
TREAT_AS_HARD
1070
     0
  0
DICTIONARY
  5
1A
102
{ACAD_REACTORS
330
C
102
}
330
C
100
AcDbDictionary
1001
ACAD
1000
TREAT_AS_HARD
1070
     0
  0
DICTIONARY
  5
17
102
{ACAD_REACTORS
330
C
102
}
330
C
100
AcDbDictionary
  3
STANDARD
350
18
1001
ACAD
1000
TREAT_AS_HARD
1070
     0
  0
DICTIONARY
  5
19
102
{ACAD_REACTORS
330
C
102
}
330
C
100
AcDbDictionary
1001
ACAD
1000
TREAT_AS_HARD
1070
     0
  0
MLINESTYLE
  5
18
102
{ACAD_REACTORS
330
17
102
}
330
17
100
AcDbMlineStyle
  2
Standard
 70
     0
  3

 62
   256
 51
90.0
 52
90.0
 71
     2
 49
0.5
 62
   256
  6
BYLAYER
 49
-0.5
 62
   256
  6
BYLAYER
  0
ENDSEC
  0
EOF
